Dewolff - Silver Love Machine tab

Drums starts first, then guitar plays this
--------------------------------------------------|
--------------------------------------------------|
--------------------------------------------------|
--------------------------------------------------|
-------3-5------3-5------3-5------3-5-------------|
---3-5------3-5------3-5------3-5-----------------|

--------------------------------------------------|
--------------------------------------------------|
-----------------6-7p6-------7--------------------|
-----------4h5-7-------7p5------------------------| 3x
-------3-5-----------------8----------------------|
---3-5--------------------------------------------|

--------------------------------------------------|
--------------------------------------------------|
--------------------------------------------------|
--------------------------------------------------|
-------3-5---------------5------------------------|
---3-5-----6-6-6-6-6-6-8---8/6/5------------------|
Tap to rate this tab
 
# A B C D E F G H I J K L M N O P Q R S T U V W X Y Z