Song name
# A B C D E F G H I J K L M N O P Q R S T U V W X Y Z

Dewolff - Wicked Moon tab

|---------------------------------------------|
|---------------------------------------------|
|---------3-------3---------------------------| 
|---5p3-----5p3-----5p3---3h5-5---------------|  2x
|-------5-------5-------5---------------------|
|---------------------------------------------|

|---------------------------------------------|
|---------------------------------------------|
|-----------8---------8-----------------------|
|---10p8------10p8------10p8----8h10-10-------|
|--------10--------10--------10---------------|
|---------------------------------------------|

|---------------------------------------------|
|---------------------------------------------|
|---------3-------3---------------------------| 
|---5p3-----5p3-----5p3---3h5-5---------------|
|-------5-------5-------5---------------------|
|---------------------------------------------|

|---------------------------------------------|
|---------------------------------------------|
|--7-8-7------5-6-5---------------------------|
|--7-8-7------5-6-5---------------------------|
|---------------------------------------------|
|---------------------------------------------|
Tap to rate this tab
 
# A B C D E F G H I J K L M N O P Q R S T U V W X Y Z