Dewolff - Dont You Go Up The Sky tab

my version of the intro of don't you go up the sky by thewolff
i think its very accurate 

e|--------------------------------------------|
b|--------------------------------------------|
g|--------------------------------------------| 2x
d|/9---7----5---------------------------------|
a|------------7---5-7--7p5---/10-/10-7---5-7--|
E|---0---0------7----------7----------7-------|

e|--------------------------------------------|
b|--------------------------------------------|
g|------------------------------------------9-| 
d|/9---7----5---------------------------8-9---|
a|------------7p5---5-7--7p5---/10-/10-7------|
E|----------------7----------7----------------|

e|--------------------------------------------|
b|--------------------------------------------|
g|--------------------------------------------| 
d|/9---7----5---------------------------------|
a|------------7p5---5-7--7p5---/10-/10-7---5-7|
E|----------------7----------7----------7-----|

e|--------------------------------------------|
b|--------------------------------------------|
g|--------------------------------------------| 
d|/9-7-5---4--4-------------------------------|
a|-------7------7-5---5-----------------------|
E|------------------7-------------------------|
Tap to rate this tab
 
# A B C D E F G H I J K L M N O P Q R S T U V W X Y Z