Dewolff - Gold And Seaweed tab

-------------------------------------------------------------------------------
			     GOLD AND SEAWEED - DeWolff
-------------------------------------------------------------------------------
Tabbed by: Ruzzel


Tuning: Standard
e|---------------------------------------------------------------|
B|---------------------------------------------------------------|
G|--4------2--4--------------------------------------------------|
D|--5------3--5--------------------------------------------------|
A|--5------3--5--------------------------------------------------|
E|--3------1--3--------------------------------------------------|

e|---------------------------------------------------------------|
B|---------------------------------------------------------------|
G|--3-------3----------------------------------------------------|
D|----5--5-----5p3---5-5-3---------------------------------------|
A|-----------------5-------5--3----------------------------------|
E|---------------------------------------------------------------|

e|---------------------------------------------------------------|
B|---------------------------------------------------------------|
G|--3------3------5/7--------------------------------------------|
D|-----5-5---5p3-------------------------------------------------|
A|---------------------------------------------------------------|
E|---------------------------------------------------------------|

e|-------------------------------13-----15-----------------------|
B|--8-------11-----13-----15-----16b18--18b20--------------------|
G|--10b12---13b15--15b17--17b19----------------------------------|
D|---------------------------------------------------------------|
A|---------------------------------------------------------------|
E|---------------------------------------------------------------|

e|---------------------------------------------------------------|
B|---------------------------------------------------------------|
G|---------------3-----------------------------------------------|
D|-----------3-5---5-3---3---------------------------------------|
A|-----2-3-5-----------5----5-3-1-3-4----------------------------|
E|--3------------------------------------------------------------|

e|---------------------------------------------------------------|
B|-----------------------3--5--3--5b6--5--3--5--3----------------|
G|-----------------3-----3--5--3--5b6--5--3--5--3----------------|
D|------------3-5-----5------------------------------------------|
A|-----2-3-5-----------------------------------------------------|
E|--3------------------------------------------------------------|


************************************
| /   slide up
| b   Bend
| p   pull-off
************************************
Tap to rate this tab
 
# A B C D E F G H I J K L M N O P Q R S T U V W X Y Z