Dewolff - Gold And Seaweed tab

Tuning: Standard

e|---------------------------------------------------------------|
B|---------------------------------------------------------------|
G|---------------------------------------------------------------|
D|-5----3-----5-----3----5------3------5-------------------------|
A|-5----3-----5-----3----5------3------5-------------------------|
E|-3----1-----3-----1----3------1------3 ------------------------|



        3x                       /             1x
e|---------------------------------------------------------------|
B|---------------------------------------------------------------|
G|----3-0--0h3p0-  0--0------------1x--3-0--0h30h30h30h3---/5----|
D|--------------h5--------3p0------------------------------------|
A|---------------------------h5----------------------------------|
E|---------------------------------------------------------------|


e|---------------------------------------------------------------|x7
B|---------------------------------------------------------------|
G|---------------------------------------------------------------|
D|-5----3-----5-----3----5------3------5-------------------------|
A|-5----3-----5-----3----5------3------5-------------------------|
E|-3----1-----3-----1----3------1------3 ------------------------|

        3x                       /             1x
e|---------------------------------------------------------------|2x
B|---------------------------------------------------------------|
G|----3-0--0h3p0-  0--0------------1x--3-0--0h30h30h30h3---/5----|
D|--------------h5--------3p0------------------------------------|
A|---------------------------h5----------------------------------|
E|---------------------------------------------------------------

Guitar solo

e|---------------------------------------------------------------|
B|---------------------------------------------------------------|
G|----------------------3------3---------------------------------|
D|-------------------3-----5-------5---3-------------------------|
A|---------3--4--5-------------------------5----3--------3----5--|
E|--3--6-------------------------------------------6-------------|

e|---------------------------------------------------------------|
B|---------------------------------------------------------------|
G|----------------------3------3-------3-----5---/5--b5----3-----|
D|-------------------3-----5-------5-------------------------5---|
A|---------3--4--5-----------------------------------------------|
E|--3--6---------------------------------------------------------|


Hammond solo

e|---------------------------------------------------------------|
B|---------------------------------------------------------------|2x
G|----------------------3------3---------------------------------|
D|-------------------3-----5-------5---3-------------------------|
A|---------3--4--5-------------------------5----3--------3----5--|
E|--3--6-------------------------------------------6-------------|

e|---------------------------------------------------------------|
B|---------------------------------------------------------------|
G|----------------------3------3-------3-----5---/5--b5----3-----|
D|-------------------3-----5-------5-------------------------5---|
A|---------3--4--5-----------------------------------------------|
E|--3--6---------------------------------------------------------|

e|---------------------------------------------------------------| 3x
B|---------------------------------------------------------------|
G|---------------------------------------------------------------|
D|-------- -----8---10----8--------------------------------------|
A|--10---8h10----------------10---8------------------------------|
E|-------------------------------------10---8---6----------------|

e|---------------------------------------------------------------| 
B|---------------------------------------------------------------|
G|---------------------------------------------------------------|
D|-------- -----8---10----8----/10-------------------------------|
A|--10---8h10----------------------------------------------------|
E|---------------------------------------------------------------|


ending is same riff as before


Tab made by Geronimo1986 jgijselhart@hotmail.com
Tap to rate this tab
 
# A B C D E F G H I J K L M N O P Q R S T U V W X Y Z