Dewolff - Dont You Go Up The Sky tab

e|--------------------------------------------|
b|--------------------------------------------|
g|--------------------------------------------|
d|/9---7----5----------------5-5------------- |
a|------------7---5-7--7p5-------7--5---5-7-- |
E|---0---0------7----------7------------------|

0:23
e|--------------------------------------------|
b|--------------------------------------------|
g|--------------------------------------------|
d|/9---7----5----4---4----------------------- |
a|------------7----------7--5-----5---------- |
E|-----------------------------7--------------|

0:28
e|--------------------------------------------|
b|--------------------------------------------|
g|--------------------------------------------|
d|--9----7-----5----------------------------- |
a|-----------------7p5--5-------------------- |
E|--------------------------------------------|

0:30
e|----------------------------------------------|
b|----------------------------------------------|
g|----------------------------------------------|
d|--------------------------5-------------------|
a|--7p5m-7p5m-7p5m-7p5m----------------- -------|
E|----------------------------------------------|


0:45
e|--------------------|
g|--------------------|
d|--5----7----5------ |
a|--5----7----5------ |
E|--3----5----3-------|

e|----------------------------------------------|
b|----------------------------------------------|
g|----------------------------------------------|
d|--------------------------5-------------------|
a|--7p5m-7p5m-7p5m-7p5m----------------- -------|
E|----------------------------------------------|

0:54
e|--------------------|
g|--------------------|
d|--5----7----5------ |
a|--5----7----5------ |
E|--3----5----3-------|


e|----------------------------------------------|
b|----------------------------------------------|
g|----------------------------------------------|
d|--------------------------5-------------------|
a|--7p5m-7p5m-7p5m-7p5m----------------- -------|
E|----------------------------------------------|

0:59
e|--------------------|
b|------2-------------|
g|--7---2-------------|
d|--7---2---5---------|
a|--5-------5---------|
E|----------3---------|


Rest of song kinda runs the same

Tabbed by Geronimo 1986 jgijselhart@hotmail.comy
Tap to rate this tab
 
# A B C D E F G H I J K L M N O P Q R S T U V W X Y Z