Dewolff - Pick Your Bones Out Of The Water tab

---------------------------------------------------------------------------
Pick your bones out of the water - Dewolff
---------------------------------------------------------------------------
Tabbed by: Gukker
Email: sjoerdsson@yahoo.com

Tuning: Standard

Intro:
									   4x
e|------------------------------------------------------------------------|
B|------------------------------------------------------------------------|
G|---------------------7-5------------------------------------------------|
D|------7-5--7--------------7---------5-4---4-2---2----0------------------|
A|-0-0------------0-0------------0-0-----------------3---3----------------|
E|------------------------------------------------------------------------|

Verse:
     PM-------------------------------------------------------------------|
e|------------------------------------------------------------------------|
B|------------------------------------------------------------------------|
G|------------------------------------------------------------------------|
D|-7--7--7--7-----7--7--7--7-----7--7--7--7-----7--7--7--7----------------|
A|-7--7--7--7-----7--7--7--7-----7--7--7--7-----7--7--7--7----------------|
E|-5--5--5--5--5--5--5--5--5--5--5--5--5--5--5--5--5--5--5----------------|
									   4x
     PM-------------------------------------------------------------------|
e|------------------------------------------------------------------------|
B|------------------------------------------------------------------------|
G|------------------------------------------------------------------------|
D|-----7--7--7--7-----7--7--7--7-----7--5-4---4-2---2----0----------------|
A|-----7--7--7--7-----7--7--7--7-----7-----------------3---3--------------|
E|--5--5--5--5--5--5--5--5--5--5--5--5------------------------------------|

Pre-Chorus:
e|--------------------------------------------------------------------------|
B|--------------------------------------------------------------------------|
G|-7------7-8-9-------------------------------------------------------------|
D|-7------7-8-9---------7------5-----5h7-5----------------------------------|
A|-5------5-6-7------------5-7---7-5-------7--------------------------------|
E|--------------------------------------------------------------------------|

Chorus:  								   2x
e|------------------------------------------------------------------------|
B|------------------------------------------------------------------------|
G|---------------------7-5------------------------------------------------|
D|------7-5--7--------------7---------5-4---4-2---2----0------------------|
A|-0-0------------0-0------------0-0-----------------3---3----------------|
E|------------------------------------------------------------------------|

Play verse again

Play Pre-chorus again

Play Chorus again

Play Pre-chorus again




Keyboardsolo :

		  8x
  PM----------------|
e|------------------|
B|------------------|
G|------------------|
D|-9----9---9---9---|
A|-9----9---9---9---|
E|-7----7---7---7-7-|

e|------------------------------------------------------------------------|
B|------------------------------------------------------------------------|
G|------------------------------------------------------------------------|
D|------------------------------------------------------------------------|
A|--7----5----3----5----3----5---7-7-7-7\---------------------------------|
E|------------------------------------------------------------------------|

Outro:
e|------------------------------------------------------------------------|
B|------------------------------------------------------------------------|
G|---------------------7-5------------------------------------------------|
D|------7-5--7--------------7---------5-4---4-2---2----0------------------|
A|-0-0------------0-0--------------------------------3---3----------------|
E|------------------------------------------------------------------------|

Play intro riff one time
Then:
e|------------------------------------------------------------------------|
B|------------------------------------------------------------------------|
G|---------------------7-5------------------------------------------------|
D|------7-5--7--------------7-------5-4---4-2---2-0---0-------------------|
A|-0-0------------0-0-----------0-0---------------------3---3-2---2-0----0|
E|---------------------------------------------------------------------3--|
Tap to rate this tab
 
# A B C D E F G H I J K L M N O P Q R S T U V W X Y Z