Song name
# A B C D E F G H I J K L M N O P Q R S T U V W X Y Z

Dexter Freebish - Deeper tab

Help us improve GuitareTab! Take a short survey!
-------------------------------------------------------------------------------
			     Deeper - Dexter Freebish
-------------------------------------------------------------------------------
Tabbed by: Christopher Bendrell
Email: Chrisbend24@yahoo.com

Tuning: eBGDAE

Intro/Verse 1 (Guitar 1 and Guitar 2) (Clean)
e|--------------------------------------------------------------------------------|
B|--------------------------------------------------------------------------------|
G|-4-4-4-4-4-4-4-4-4-4-4-4---------7-7-7-7-2-2-2-2-4-4-4-4---------7-7-7-7-2-2-2-2|
D|-4-4-4-4-4-4-4-4-4-4-4-4-3-3-3-3-7-7-7-7-2-2-2-2-4-4-4-4-3-3-3-3-7-7-7-7-2-2-2-2|
A|-2-2-2-2-2-2-2-2-2-2-2-2-3-3-3-3-5-5-5-5-0-0-0-0-2-2-2-2-3-3-3-3-5-5-5-5-0-0-0-0|
E|-------------------------5-5-5-5-------------------------5-5-5-5----------------|

Pre Chorus (Guitar 1 and Guitar 2) (Clean)
e|--------------------------------------------------------------------------------|
B|--------------------------------------------------------------------------------|
G|--------2~-----4~------5/7~-7-7-7---------2~------------------------------------|
D|-5~-----2~-----4~------5/7~-7-7-7--3~-----2~-----4-4-4-4-4-4-4-4-4-4-4-4-4-4-4-4|
A|-5~-----0~-----2~------3/5~-5-5-5--3~-----0~-----4-4-4-4-4-4-4-4-4-4-4-4-4-4-4-4|
E|-3~--------------------------------5~------------2-2-2-2-2-2-2-2-2-2-2-2-2-2-2-2|

Chorus (Guitar 1 and Guitar 2) (Dist.)
e|---------------------------------------------------------------------------|
B|---------------------------------------------------------------------------|
G|-4--4-4-4--4-4-----------------7--7-7-7--7-7--2--2-2-2--2-2----------------|
D|-4--4-4-4--4-4--3--3-3-3--3-3--7--7-7-7--7-7--2--2-2-2--2-2----------------|
A|-2--2-2-2--2-2--3--3-3-3--3-3--5--5-5-5--5-5--0--0-0-0--0-0----------------|
E|----------------5--5-5-5--5-5----------------------------------------------|

e|---------------------------------------------------------------------------|
B|---------------------------------------------------------------------------|
G|-4--4-4-4--4-4-----------------7--7-7-7--7-7--2--2-2-2--2-2----------------|
D|-4--4-4-4--4-4--3--3-3-3--3-3--7--7-7-7--7-7--2--2-2-2--2-2----------------|
A|-2--2-2-2--2-2--3--3-3-3--3-3--5--5-5-5--5-5--0--0-0-0--0-0----------------|
E|----------------5--5-5-5--5-5----------------------------------------------|


e|--------------------------|
B|--------------------------|
G|-----------2-2-2-2-4-4-4-4|
D|---3-3-3-3-2-2-2-2-4-4-4-4|
A|---3-3-3-3-0-0-0-0-2-2-2-2|
E|---5-5-5-5----------------|

Verse 2 (Guitar 1 and Guitar 2) (Clean)
e|----------------------------------------------------------------|
B|----------------------------------------------------------------|
G|-4-4-4-4---------7-7-7-7-2-2-2-2-4-4-4-4---------7-7-7-7-2-2-2-2|
D|-4-4-4-4-3-3-3-3-7-7-7-7-2-2-2-2-4-4-4-4-3-3-3-3-7-7-7-7-2-2-2-2|
A|-2-2-2-2-3-3-3-3-5-5-5-5-0-0-0-0-2-2-2-2-3-3-3-3-5-5-5-5-0-0-0-0|
E|---------5-5-5-5-------------------------5-5-5-5----------------|

Verse 2 (Cont.) (Guitar 1) (Clean)
e|----------------------------------------------------------------|
B|----------------------------------------------------------------|
G|-4-4-4-4---------7-7-7-7-2-2-2-2-4-4-4-4---------7-7-7-7-2-2-2-2|
D|-4-4-4-4-3-3-3-3-7-7-7-7-2-2-2-2-4-4-4-4-3-3-3-3-7-7-7-7-2-2-2-2|
A|-2-2-2-2-3-3-3-3-5-5-5-5-0-0-0-0-2-2-2-2-3-3-3-3-5-5-5-5-0-0-0-0|
E|---------5-5-5-5-------------------------5-5-5-5----------------|

(Guitar 2) (Clean)
e|---------------------------------------------------------------------------|
B|---------------------------------------------------------------------------|
G|---------------------------------------------------------------------------|
D|---4--------------7-------2-------2----------------7-------2---------------|
A|-2---2----5-----5---5---0---0---4---4------3-----5---5---0---0-------------|
E|--------3---3----------------------------5---5-----------------------------|

Pre Chorus (Guitar 1 and Guitar 2) (Clean)
e|--------------------------------------------------------------------------------|
B|--------------------------------------------------------------------------------|
G|--------2~-----4~------5/7~-7-7-7---------2~------------------------------------|
D|-5~-----2~-----4~------5/7~-7-7-7--3~-----2~-----4-4-4-4-4-4-4-4-4-4-4-4-4-4-4-4|
A|-5~-----0~-----2~------3/5~-5-5-5--3~-----0~-----4-4-4-4-4-4-4-4-4-4-4-4-4-4-4-4|
E|-3~--------------------------------5~------------2-2-2-2-2-2-2-2-2-2-2-2-2-2-2-2|

Chorus (Guitar 1 and Guitar 2) (Dist.)
e|---------------------------------------------------------------------------|
B|---------------------------------------------------------------------------|
G|-4--4-4-4--4-4-----------------7--7-7-7--7-7--2--2-2-2--2-2----------------|
D|-4--4-4-4--4-4--3--3-3-3--3-3--7--7-7-7--7-7--2--2-2-2--2-2----------------|
A|-2--2-2-2--2-2--3--3-3-3--3-3--5--5-5-5--5-5--0--0-0-0--0-0----------------|
E|----------------5--5-5-5--5-5----------------------------------------------|

e|---------------------------------------------------------------------------|
B|---------------------------------------------------------------------------|
G|-4--4-4-4--4-4-----------------7--7-7-7--7-7--2--2-2-2--2-2----------------|
D|-4--4-4-4--4-4--3--3-3-3--3-3--7--7-7-7--7-7--2--2-2-2--2-2----------------|
A|-2--2-2-2--2-2--3--3-3-3--3-3--5--5-5-5--5-5--0--0-0-0--0-0----------------|
E|----------------5--5-5-5--5-5----------------------------------------------|

e|---------------------------------------------------------------------------|
B|---------------------------------------------------------------------------|
G|-4--4-4-4--4-4-----------------7--7-7-7--7-7--2--2-2-2--2-2----------------|
D|-4--4-4-4--4-4--3--3-3-3--3-3--7--7-7-7--7-7--2--2-2-2--2-2----------------|
A|-2--2-2-2--2-2--3--3-3-3--3-3--5--5-5-5--5-5--0--0-0-0--0-0----------------|
E|----------------5--5-5-5--5-5----------------------------------------------|

e|---------------------------------------------------------------------------|
B|---------------------------------------------------------------------------|
G|-4--4-4-4--4-4-----------------7--7-7-7--7-7--2--2-2-2--2-2----------------|
D|-4--4-4-4--4-4--3--3-3-3--3-3--7--7-7-7--7-7--2--2-2-2--2-2----------------|
A|-2--2-2-2--2-2--3--3-3-3--3-3--5--5-5-5--5-5--0--0-0-0--0-0----------------|
E|----------------5--5-5-5--5-5----------------------------------------------|

e|--------------------------------|
B|--------------------------------|
G|-----------2-2-2-2--------------|
D|---3-3-3-3-2-2-2-2-4-4-4-4-4-4-4|
A|---3-3-3-3-0-0-0-0-4-4-4-4-4-4-4|
E|---5-5-5-5---------2-2-2-2-2-2-2|

Guitar Solo (Guitar 1) (Dist. w/ Flange effect)
e|------------------------------------------------------------------------------------------------------------------------------------|
B|------------------------------------------------------------------------------------------------------------------------------------|
G|-------------------------------------7b-7h9~-6~-----------------------------------------7b-7h9-6~--9b~~~~~--7b~~~~~~----------------|
D|-\-9~-9p7p4-4h7h9-9~-9p7p4-4h7h9--9~------------9p7p4-9~-9p7p4-4h7h9-9~-9p7p4-4h7h9--9~--------------------------------9b~~~~~~~~~~~|
A|-\----------------------------------------------------------------------------------------------------------------------------------|
E|-\----------------------------------------------------------------------------------------------------------------------------------|

(Guitar 2) (Dist.)
e|-----------------------------------------------------------------------------------------------------------------------------------------|
B|-----------------------------------------------------------------------------------------------------------------------------------------|
G|-4--4-4-4--4-4-----------------7--7-7-7--7-7--2--2-2-2--2-2-4--4-4-4--4-4-----------------7--7-7-7--7-7--2--2-2-2--2-2------2~-----------|
D|-4--4-4-4--4-4--3--3-3-3--3-3--7--7-7-7--7-7--2--2-2-2--2-2-4--4-4-4--4-4--3--3-3-3--3-3--7--7-7-7--7-7--2--2-2-2--2-2-3~---2~--4-4-4-4-4|
A|-2--2-2-2--2-2--3--3-3-3--3-3--5--5-5-5--5-5--0--0-0-0--0-0-2--2-2-2--2-2--3--3-3-3--3-3--5--5-5-5--5-5--0--0-0-0--0-0-3~---0~--4-4-4-4-4|
E|----------------5--5-5-5--5-5----------------------------------------------5--5-5-5--5-5-------------------------------5~-------2-2-2-2-2|

Chorus (Guitar 1 and Guitar 2) (Dist.)
e|---------------------------------------------------------------------------|
B|---------------------------------------------------------------------------|
G|-4--4-4-4--4-4-----------------7--7-7-7--7-7--2--2-2-2--2-2----------------|
D|-4--4-4-4--4-4--3--3-3-3--3-3--7--7-7-7--7-7--2--2-2-2--2-2----------------|
A|-2--2-2-2--2-2--3--3-3-3--3-3--5--5-5-5--5-5--0--0-0-0--0-0----------------|
E|----------------5--5-5-5--5-5----------------------------------------------|

e|---------------------------------------------------------------------------|
B|---------------------------------------------------------------------------|
G|-4--4-4-4--4-4-----------------7--7-7-7--7-7--2--2-2-2--2-2----------------|
D|-4--4-4-4--4-4--3--3-3-3--3-3--7--7-7-7--7-7--2--2-2-2--2-2----------------|
A|-2--2-2-2--2-2--3--3-3-3--3-3--5--5-5-5--5-5--0--0-0-0--0-0----------------|
E|----------------5--5-5-5--5-5----------------------------------------------|

e|---------------------------------------------------------------------------|
B|---------------------------------------------------------------------------|
G|-4--4-4-4--4-4-----------------7--7-7-7--7-7--2--2-2-2--2-2----------------|
D|-4--4-4-4--4-4--3--3-3-3--3-3--7--7-7-7--7-7--2--2-2-2--2-2----------------|
A|-2--2-2-2--2-2--3--3-3-3--3-3--5--5-5-5--5-5--0--0-0-0--0-0----------------|
E|----------------5--5-5-5--5-5----------------------------------------------|

e|---------------------------------------------------------------------------|
B|---------------------------------------------------------------------------|
G|-4--4-4-4--4-4-----------------7--7-7-7--7-7--2--2-2-2--2-2----------------|
D|-4--4-4-4--4-4--3--3-3-3--3-3--7--7-7-7--7-7--2--2-2-2--2-2----------------|
A|-2--2-2-2--2-2--3--3-3-3--3-3--5--5-5-5--5-5--0--0-0-0--0-0----------------|
E|----------------5--5-5-5--5-5----------------------------------------------|

e|---------------------------------|
B|---------------------------------|
G|-----------2-2-2-2---------------|
D|---3-3-3-3-2-2-2-2-4-4-4-4-4-4-4~|
A|---3-3-3-3-0-0-0-0-4-4-4-4-4-4-4~|
E|---5-5-5-5---------2-2-2-2-2-2-2~|


| /  slide up
| \  slide down
| h  hammer-on
| p  pull-off
| ~  vibrato
| +  harmonic
| x  Mute note
===============================================================================
Related for Deeper tab