Song name
# A B C D E F G H I J K L M N O P Q R S T U V W X Y Z

Dexter Freebish - Wild Things tab

Help us improve GuitareTab! Take a short survey!
-------------------------------------------------------------------------------
			    Wild Things - Dexter Freebish
-------------------------------------------------------------------------------
Tabbed by:
Email:

Tuning: Standard

Guitar 1 intro/verse 1
E|-------------------|
B|-------------------|
G|----0----5-----4---|
D|--------5-5---5-5--|
A|--2--2-3-----5---5-|
E|-0----------3-----3|

Guitar 2 intro
E|--------------------|
B|--------------------|
G|------5~------------|
D|-2~---5~---5~-------|
A|-2~---3~---5~-------|
E|-0~--------3~-------|

Guitar 1 pre chorus
E|-------3p2~-------3p2~---------------------------------|
B|-------------------------------------------------------|
G|-----5~---------5~----5-5-5-5-5-5-5--------------------|
D|-2~--5~-----2~--5~----5-5-5-5-5-5-5--------------------|
A|-2~--3~-----2~--3~----3-3-3-3-3-3-3-2/3-2/3-2/3-2/3-2/3|
E|-0~---------0~-----------------------------------------|

Guitar 2 pre chorus 
E|--------------------------------------------------------|
B|--------------------------------------------------------|
G|-----5~---------5~----5-5-5-5-5-5-5-5-5-5-5-5-5-5-5-5-5-|
D|-2~--5~-----2~--5~----5-5-5-5-5-5-5-5-5-5-5-5-5-5-5-5-5-|
A|-2~--3~-----2~--3~----3-3-3-3-3-3-3-3-3-3-3-3-3-3-3-3-3-|
E|-0~---------0~------------------------------------------|
                        * * * * * * * * * * * * * * * * *

Guitar 1 & Guitar 2 chorus
E|-------------------------|
B|-------------------------|
G|-----5-5-----------------|
D|-2-2-5-5-5-5-5-5--5--5-5-|
A|-2-2-3-3-5-5-5-5--5--5-5-|
E|-0-0-----3-3-3-3--3--3-3-|

Guitar 1 verse 2
E|-------------------|
B|-------------------|
G|----0----5-----4---|
D|--------5-5---5-5--|
A|--2--2-3-----5---5-|
E|-0----------3-----3|

These are the lead guitar riffs that the guitar is playing during the verse

Riff 1
E|---------7--7-7p5----------|
B|-----------------(7)-(5)---|
G|----0----------------------|
D|---------------------------|
A|--2--2-3-------------------|
E|-0-------------------------|

Riff 2 
E|-7b-5-------|
B|-7b--7-5----|
G|--------7-6~|
D|------------|
A|------------|
E|------------|

Guitar 2 Verse 2
E|-------------------|
B|-------------------|
G|----0----5-----4---|
D|--------5-5---5-5--|
A|--2--2-3-----5---5-|
E|-0----------3-----3|

Guitar 1 pre chorus
E|-------3p2~-------3p2~---------------------------------|
B|-------------------------------------------------------|
G|-----5~---------5~----5-5-5-5-5-5-5--------------------|
D|-2~--5~-----2~--5~----5-5-5-5-5-5-5--------------------|
A|-2~--3~-----2~--3~----3-3-3-3-3-3-3-2/3-2/3-2/3-2/3-2/3|
E|-0~---------0~-----------------------------------------|

Guitar 2 pre chorus 
E|--------------------------------------------------------|
B|--------------------------------------------------------|
G|-----5~---------5~----5-5-5-5-5-5-5-5-5-5-5-5-5-5-5-5-5-|
D|-2~--5~-----2~--5~----5-5-5-5-5-5-5-5-5-5-5-5-5-5-5-5-5-|
A|-2~--3~-----2~--3~----3-3-3-3-3-3-3-3-3-3-3-3-3-3-3-3-3-|
E|-0~---------0~------------------------------------------|
                        * * * * * * * * * * * * * * * * *
Guitar 1 & Guitar 2 chorus
E|-------------------------|
B|-------------------------|
G|-----5-5-----------------|
D|-2-2-5-5-5-5-5-5--5--5-5-|
A|-2-2-3-3-5-5-5-5--5--5-5-|
E|-0-0-----3-3-3-3--3--3-3-|

Guitar 1 guitar solo
E|----------5~--7~-10-12--12-12-12p10---12p10-------------|
B|-5~--7~-8~-------------------------12------12p10--10----|
G|------------------------------------------------12--9~~\|
D|--------------------------------------------------------|
A|--------------------------------------------------------|
E|--------------------------------------------------------|

E|---------5~--7~-10~--7~-7~-7~~~~|
B|-5~--7~-8-----------------------|
G|--------------------------------|
D|--------------------------------|
A|--------------------------------|
E|--------------------------------|

Guitar 1 & Guitar 2 chorus
E|-------------------------|
B|-------------------------|
G|-----5-5-----------------|
D|-2-2-5-5-5-5-5-5--5--5-5-|
A|-2-2-3-3-5-5-5-5--5--5-5-|
E|-0-0-----3-3-3-3--3--3-3-|

Guitar 1 outro
E|-----------------------|
B|-----------------------|
G|----0----5-----4-------|
D|--------5-5---5-5----5~|
A|--2--2-3-----5---5---5~|
E|-0----------3-----3--3~|

Guitar 2 outro
E|--------------------|
B|--------------------|
G|------5~------------|
D|-2~---5~---5~-------|
A|-2~---3~---5~-------|
E|-0~--------3~-------|

Related for Wild Things tab