Song name
# A B C D E F G H I J K L M N O P Q R S T U V W X Y Z

Dezerter - Burdel tab

Whole song power chords:
(cała piosenka akordy rockowe):
Intro/wzrotka:
--------------------|
--------------------|
-5-5-5-5-5-5----6-6-|
-5-5-5-5-5-5----6-6-|   x3
-3-3-3-3-3-3----4-4-|
--------------------|

--------------------|
--------------------|
-5-5--8-8--7-7------|
-5-5--8-8--7-7--8-8-|
-3-3--6-6--5-5--8-8-|
----------------6-6-|


REF:

----------------   ------|
----------------   ------|
----------------   ------|
5-5-5-5-5-5--6-6 x24-4-4-|
5-5-5-5-5-5--6-6   4-4-4-|
3-3-3-3-3-3--4-4   2-2-2-|


DEZERTER-BURDEL

POZDRO WOJTEK
Tap to rate this tab
 
# A B C D E F G H I J K L M N O P Q R S T U V W X Y Z