Song name
# A B C D E F G H I J K L M N O P Q R S T U V W X Y Z

Dht - Listen To Your Heart tab

Tabber-Joward Harvey Guzman
Age-13


e-----------------------------------------------------------------------|
B-0-0-0-0-0-2-3-3-3-3-3-5-7-7-7-7-7-5-3-3-3-5-3-2-0-0-0-0-2-3-3-3-3-3-2-|
G-----------------------------------------------------------------------|
D-----------------------------------------------------------------------|
A-----------------------------------------------------------------------|
E-----------------------------------------------------------------------|

e-----------------------------------------------------------------------|
B-----------------------------------------------------------------------|
G-2-2-2-2-4-4-4-2h4-2h4-------------------------------------------------|
D-----------------------------------------------------------------------|
A-----------------------------------------------------------------------|
E-----------------------------------------------------------------------|


e-----------------------------------------------------------------------|
B-0-0-0-0-0-2-3-3-3-3-3-2h3-2h3-7-7-7-7-5-3-3-3-2h3-2h3-----------------|
G-----------------------------------------------------------------------|
D-----------------------------------------------------------------------|
A-----------------------------------------------------------------------|
E-----------------------------------------------------------------------|

e-----------------------------------------------------------------------|
B-0-0-0-0-2-3-3-2h3-2h3-------------------------------------------------|
G-----------------------2-2-2-2-4-4-4-2h4-2h4---------------------------|
D-----------------------------------------------------------------------|
A-----------------------------------------------------------------------|
E-----------------------------------------------------------------------|
Tap to rate this tab
 
# A B C D E F G H I J K L M N O P Q R S T U V W X Y Z