Song name
# A B C D E F G H I J K L M N O P Q R S T U V W X Y Z

Di Derre - 90-metersbakken tab

-------------------------------------------------------------------------------
			     90-metersbakken - Di Derre
-------------------------------------------------------------------------------
Tabbed by: StianB
Email: stianba@gmail.com

Tuning: EADGBe

First "solo" after the first chorus:

|-9----7--------------------------------------------------------------------|
|---9----7--9---------------------------------------------------------------|
|-------------6-------------------------------------------------------------|
|---------------------------------------------------------------------------|
|---------------------------------------------------------------------------|
|---------------------------------------------------------------------------|

Solo:

|-9~-11~-11b12-12r11-9~--------7-------------7-------7----------------------|
|------------------------7-7/9---9~----7h9p7---7h9p7---7h9p7----------------|
|------------------------------------6-----------------------9~-8h9-8-6~----|
|---------------------------------------------------------------------------|
|---------------------------------------------------------------------------|
|---------------------------------------------------------------------------|

Tap to rate this tab
 
# A B C D E F G H I J K L M N O P Q R S T U V W X Y Z