Song name
# A B C D E F G H I J K L M N O P Q R S T U V W X Y Z

Di-rect - Follow tab

Follow

e|---------------------------------------------|
b|---------------------------------------------|
g|---------------------------------------------|
d|---------------------------------------------| 9x first 7 clean
a|---7-8-7-----5-6---------2-4-2-4-------2-4-2-|
e|-5-5-5-5---3-3-3---1-1-1---------1-1-1-------|

e|--------------------|
b|--------------------|
g|--------------------|
d|--------------------| 1x then F F F F
a|---7-8-7-----5-6----|
e|-5-5-5-5---3-3-3---1|

refr:
A C#m Fm(octave higher) Dm Cm 2x

coupl:
e|---------------------------------------------|
b|---------------------------------------------|
g|---------------------------------------------|
d|---------------------------------------------| 4x 
a|---7-8-7-----5-6---------2-4-2-4-------2-4-2-|
e|-5-5-5-5---3-3-3---1-1-1---------1-1-1-------|

e|---------------------------------------------|
b|---------------------------------------------|
g|---------------------------------------------|
d|---------------------------------------------| 6x
a|---7-8-9-----7-8-9---7-8-999----7-8-9----7-8-999-|
e|-5-5-5-5---5-5-5-5-5-5-5-5----5-5-5-5--5-5-5-5---|

refr: 4x
Tap to rate this tab
 
# A B C D E F G H I J K L M N O P Q R S T U V W X Y Z