Song name
# A B C D E F G H I J K L M N O P Q R S T U V W X Y Z

Di-rect - Hungry For Love tab

Hi all, 
made another Di-rect tab
hope you like it. It's called Hungry for love

tabber: paul westerink
mail: paul 11ajax@hotmail.com

tuning: standard



INTRO - LIGHT DISTORTION
|-----------------|------------|---------------|---------------|
|-----------------|------------|---------------|---------------|
|--4------------4-|------------|------------4--|------------4--|
|--4--9-9--2-2--4-|--9-9--2-2--|--9-9--2-2--4--|--9-9--2-2--4--|
|--2--9-9--2-2--2-|--9-9--2-2--|--9-9--2-2--2--|--9-9--2-2--2--|
|-----7-7--0-0----|--7-7--0-0--|--7-7--0-0-----|--7-7--0-0-----|
pm    . .   . .      . .  . .     . .  . .        . .  . .


VERSE - HEAVY DISTORTION
|---------------|
|---------------|
|------------4--|
|--9-9--2-2--4--|
|--9-9--2-2--2--|
|--7-7--0-0-----|x12
pm . .  . .  


PRE-CHORUS
|-----------------------------------|-------------------|-------------------|
|-----------------------------------|-------------------|-------------------|
|-----------------------------------|-------------------|-------------------|
|-----------------------------------|-------------------|-------------------|
|--9-9-9-9-9-9-9-9-9-9-9-9-9-9-9-9--|--6-6-6-6-6-6-6-6--|--2-2-2-2-2-2-2-2--|
|--7-7-7-7-7-7-7-7-7-7-7-7-7-7-7-7--|--4-4-4-4-4-4-4-4--|--0-0-0-0-0-0-0-0--|
pm . . . . . . . . . . . . . . . .     . . . . . . . .     . . . . . . . .

|-----------------------------------|-------------------|--------------|
|-----------------------------------|-------------------|--------------|
|-----------------------------------|-------------------|--------------|
|-----------------------------------|-------------------|--2~--2~--2~--|
|--9-9-9-9-9-9-9-9-9-9-9-9-9-9-9-9--|--4-4-4-4-4-4-4-4--|--2~--2~--2~--|
|--7-7-7-7-7-7-7-7-7-7-7-7-7-7-7-7--|--2-2-2-2-2-2-2-2--|--0~--0~--0~--|
pm . . . . . . . . . . . . . . . .     . . . . . . . .


CHORUS
|-----------------------------------|-------------------|-------------------|
|-----------------------------------|-------------------|-------------------|
|-----------------------------------|-------------------|-------------------|
|--9-9-9-9-9-9-9-9-9-9-9-9-9-9-9-9--|--6-6-6-6-6-6-6-6--|--2-2-2-2-2-2-2-2--|
|--9-9-9-9-9-9-9-9-9-9-9-9-9-9-9-9--|--6-6-6-6-6-6-6-6--|--2-2-2-2-2-2-2-2--|
|--7-7-7-7-7-7-7-7-7-7-7-7-7-7-7-7--|--4-4-4-4-4-4-4-4--|--0-0-0-0-0-0-0-0--|

|-----------------------------------|-------------------|--------------|
|-----------------------------------|-------------------|--------------|
|-----------------------------------|-------------------|--------------|
|-----------------------------------|-------------------|--------------|
|--9-9-9-9-9-9-9-9-9-9-9-9-9-9-9-9--|--6-6-6-6-6-6-6-6--|--2~--2~--2~--|
|--9-9-9-9-9-9-9-9-9-9-9-9-9-9-9-9--|--6-6-6-6-6-6-6-6--|--2~--2~--2~--|
|--7-7-7-7-7-7-7-7-7-7-7-7-7-7-7-7--|--4-4-4-4-4-4-4-4--|--0~--0~--0~--|

-----------------------------------------------------------------------

REPEAT VERSE 

REPEAT PRE-CHORUS

REPEAT CHORUS

-----------------------------------------------------------------------

BRIDGE - HEAVY DISTORTION
|-----------------------------------|-----------------------------------|
|-----------------------------------|-----------------------------------|
|-----------------------------------|-----------------------------------|
|--4-4-4-4-4-4-4-4-4-4-4-4-4-4-4-4--|--2-2-2-2-2-2-2-2-2-2-2-2-2-2-2-2--|
|--4-4-4-4-4-4-4-4-4-4-4-4-4-4-4-4--|--2-2-2-2-2-2-2-2-2-2-2-2-2-2-2-2--|
|--2-2-2-2-2-2-2-2-2-2-2-2-2-2-2-2--|--0-0-0-0-0-0-0-0-0-0-0-0-0-0-0-0--|

|-------------------|-------------------|-------------------|---------------------------------|
|-------------------|-------------------|-------------------|---------------------------------|
|-------------------|-------------------|-------------------|---------------------------------|
|--6-6-6-6-6-6-6-6--|--4-4-4-4-4-4-4-4--|--5-5-5-5-5-5-5-5--|--7-7-7-7-7-7-7-7-7-7-7-7-7-7-7--|
|--6-6-6-6-6-6-6-6--|--4-4-4-4-4-4-4-4--|--5-5-5-5-5-5-5-5--|--7-7-7-7-7-7-7-7-7-7-7-7-7-7-7--|
|--4-4-4-4-4-4-4-4--|--2-2-2-2-2-2-2-2--|--3-3-3-3-3-3-3-3--|--5-5-5-5-5-5-5-5-5-5-5-5-5-5-5--|

INTRO - LIGHT DISTORTION
|----|          |--------------|
|----|          |--------------|
|--4-|          |------------4-|
|--4-|          |--9-9--2-2--4-|
|--2-|          |--9-9--2-2--2-|
|----|then play |--7-7--0-0----|x4
                pm . .  . .

VERSE - HEAVY DISTORTION
|-----|          |---------------|
|-----|          |---------------|
|--4--|          |------------4--|
|--4--|          |--9-9--2-2--4--|
|--2--|          |--9-9--2-2--2--|
|-----|then play |--7-7--0-0-----|x4 THE FOURTH TIME, DONT PLAY THE LAST CHORD
                 pm . .  . .  


CHORUS
|-----------------------------------|-------------------|-------------------|
|-----------------------------------|-------------------|-------------------|
|-----------------------------------|-------------------|-------------------|
|--9-9-9-9-9-9-9-9-9-9-9-9-9-9-9-9--|--6-6-6-6-6-6-6-6--|--2-2-2-2-2-2-2-2--|
|--9-9-9-9-9-9-9-9-9-9-9-9-9-9-9-9--|--6-6-6-6-6-6-6-6--|--2-2-2-2-2-2-2-2--|
|--7-7-7-7-7-7-7-7-7-7-7-7-7-7-7-7--|--4-4-4-4-4-4-4-4--|--0-0-0-0-0-0-0-0--|X3

|-----------------------------------|-------------------|--------------|
|-----------------------------------|-------------------|--------------|
|-----------------------------------|-------------------|--------------|
|-----------------------------------|-------------------|--------------|
|--9-9-9-9-9-9-9-9-9-9-9-9-9-9-9-9--|--6-6-6-6-6-6-6-6--|--2~--2~--2~--|
|--9-9-9-9-9-9-9-9-9-9-9-9-9-9-9-9--|--6-6-6-6-6-6-6-6--|--2~--2~--2~--|
|--7-7-7-7-7-7-7-7-7-7-7-7-7-7-7-7--|--4-4-4-4-4-4-4-4--|--0~--0~--0~--|

CHORUS
|-----------------------------------|-------------------|-------------------|
|-----------------------------------|-------------------|-------------------|
|-----------------------------------|-------------------|-------------------|
|--9-9-9-9-9-9-9-9-9-9-9-9-9-9-9-9--|--6-6-6-6-6-6-6-6--|--2-2-2-2-2-2-2-2--|
|--9-9-9-9-9-9-9-9-9-9-9-9-9-9-9-9--|--6-6-6-6-6-6-6-6--|--2-2-2-2-2-2-2-2--|
|--7-7-7-7-7-7-7-7-7-7-7-7-7-7-7-7--|--4-4-4-4-4-4-4-4--|--0-0-0-0-0-0-0-0--|
REPEAT THIS TILL ALMOST THE END OF THE SONG

|-----------------------------------|-------------------|----------------|
|-----------------------------------|-------------------|----------------|
|-----------------------------------|-------------------|----------------|
|-----------------------------------|-------------------|----------------|
|--9-9-9-9-9-9-9-9-9-9-9-9-9-9-9-9--|--6-6-6-6-6-6-6-6--|--2~--2~--2~~~--|
|--9-9-9-9-9-9-9-9-9-9-9-9-9-9-9-9--|--6-6-6-6-6-6-6-6--|--2~--2~--2~~~--|
|--7-7-7-7-7-7-7-7-7-7-7-7-7-7-7-7--|--4-4-4-4-4-4-4-4--|--0~--0~--0~~~--|
PLAY THIS IN THE END
Tap to rate this tab
 
# A B C D E F G H I J K L M N O P Q R S T U V W X Y Z