Guitaretab - guitar tabs
Song name
# A B C D E F G H I J K L M N O P Q R S T U V W X Y Z

Di-rect - Stuck In The Middle tab

STUCK IN THE MIDDLE - Di-rect

tabber: paul westerink
mail: paul11ajax@hotmail.com

Almost nobody knows this song. Tabbing it anyway :-)
Not excatly sure how many times you need to hit each chord, just go with the music.

tuning: standard

Legenda
| \ slide down
| . palm mute
| x dead/muted
| ~ let it ring
| h hammer on

intro 
|-------------------------------------------------------------|
|-------------------------------------------------------------|
|---------------------------------4-4-4-4--777-666-777-6-6-11-|
|-7-7-7-77777777--2-2-2-22222222--4-4-4-4--777-666-777-6-6-11-|
|-7-7-7-77777777--2-2-2-22222222--2-2-2-2--555-444-555-4-4-9--|
|-5-5-5-55555555--0-0-0-00000000------------------------------|

verse 1 'So here's your valentine'
|------------------------------------------------------------------------|
|------------------------------------------------------------------------|
|----------------------6-----6--------------------------6----------------|
|-777-7-------4------2-x-----x------777-7------4------2-x----------------|
|-555-5---444-4--222-2-4--22-4-2-0--555-5--444-4--222-2-4-2-2-2-0h4--2-0-|
|-555-5---222-2--000-0----00--------555-5--222-2--000-0------------------|
pm...    ...     ...      ..        ...    ...    ...

prechorus 'so Iím dreaming and longing for you'
|-----------------------|
|-----------------------|
|-2-222--4-444--7-9-10--|
|-2-222--4-444--x-x-x---|
|-0-000--2-222--5-7-8---|
|-----------------------|
[ Tab from: http://www.guitaretab.com/d/di-rect/191492.html ]
chorus 'So now I, Iím sure that, you will go for me, but youíre stuck in the middle'
|----------------------------------------------------------|
|----------------------------------------------------------|
|-5-5-5-555555---------------------------------------------|
|-5-5-5-555555--5-5-5-555555--7-7-7-777777--3-3-333-5-555--|
|-3-3-3-333333--5-5-5-555555--7-7-7-777777--3-3-333-5-555--|
|---------------3-3-3-333333--5-5-5-555555--1-1-111-3-333--|
'Canít force you, just let me know, so I can move on, wonít get stuck in the middle'
|----------------------------------------------------------|
|----------------------------------------------------------|
|-5-5-5-555555----------------7-7-7-777777-----------------|
|-5-5-5-555555--5-5-5-555555--7-7-7-777777--3-3-333--5-5---|
|-3-3-3-333333--5-5-5-555555--5-5-5-555555--3-3-333--5-5---|
|---------------3-3-3-333333----------------1-1-111--3-3---|


repeat verse 1

repeat prechorus

repeat chorus

then strum these chords - clean sound
|-------------|
|-------------|
|-5-----------|
|-5--5--3--5--|
|-3--5--3--5--|
|-3--3--1--3--|x4
in the meanwhile a distortion guitar hits some muted/dead notes


bridge - distortion
|-------------------|        |-----|
|------8-8--6-6--5--|        |-----|
|-5-5--x-x--x-x--x--|        |-5---|
|-x-x--5-5--3-3--2--|        |-x---|
|-3-3---------------|        |-3---|
|-------------------|x8 then |-----|

|-------|
|-------|
|-7\5~--|
|-------|
|-------|
|-------|x8
again a distortion guitar does some muted/dead notes here.


prechorus 'I wonder, just let me know'
|---------------------------------------------------------------------------|
|---------------------------------------------------------------------------|
|-5-555555555555--7-777777777777--------------------------------------------|
|-5-555555555555--7-777777777777--7-777777777777--3~------------------------|
|-3-333333333333--5-555555555555--7-777777777777--3~--pickslide this string-|
|---------------------------------5-555555555555--1~------------------------|
pm  ........        ............    ............


repeat chorus part till end of the song



check out my profile for more tabs :)


Related for Stuck In The Middle tab