Song name
# A B C D E F G H I J K L M N O P Q R S T U V W X Y Z

Di-rect - Times Are Changing tab

New song from di-rect: Times are changing

tabber: paul westerink

()= ghost note
b = bend
br= bend release
/ = slide up
\ = slide down
h = hammer on
p = pull off


solo
1:42
|---------------------------9~-------------|
|--11-(11)-(11)-(11)-(11)\9----------------|
|-------------------------------/(10)-10~--|
|------------------------------------------|
|------------------------------------------|
|------------------------------------------|

1:48
|------------------------9-----------------|
|--------------9--9h(11)----11-------------|
|--10-10-10-8---------------13b~~~~-(13b)--|
|------------------------------------------|
|------------------------------------------|
|------------------------------------------|

1:52
|---------9~-------------------------------|
|--(11)\9-----------------------------9~\--|
|--------------/(10)-10~---10-10-10-8------|
|------------------------------------------|
|------------------------------------------|
|------------------------------------------|

1:57
|------------------------------------------|
|------------------------------------------|
|--3b5r~~~~~~------------------------------|
|------------------------------------------|
|------------------------------------------|
|------------------------------------------|

please give feedback
hope u like it ;)
Tap to rate this tab
# A B C D E F G H I J K L M N O P Q R S T U V W X Y Z