Di-rect - Forgiveness tab

Band: Di-rect
Song: Forgiveness
Album: This is who we are

This is my first tab, I figured it out by ear so let me know if you hear somethin wrong. 
I also think there are some slides and hammer ons, but maybe you can figure that out by yourself.

Enjoy!

e|-------------------------------------------------------13------13-11-10---|
B|--13-13-13-13-13-13-13-13--15-15-15-15-15-13-11--10-11---10-11------------|
G|--------------------------------------------------------------------------|
D|--------------------------------------------------------------------------|
A|--------------------------------------------------------------------------|
E|--------------------------------------------------------------------------|

e|--------------------------------------------------------------------------|
B|-13-13-13--10-11-13-15-15-15-15-15-13-11-10-11----10-11----10-11----------|
G|-----------------------------------------------10-------10----------------|
D|--------------------------------------------------------------------------|
A|--------------------------------------------------------------------------|
E|--------------------------------------------------------------------------|

e|-------------------------------------------------------------------------|
B|-10-10-10-8-6--6-6-6-4-3--3-4-6-4-6-8-10-11-15---------------------------|
G|-------------------------------------------------------------------------|
D|-------------------------------------------------------------------------|
A|-------------------------------------------------------------------------|
E|-------------------------------------------------------------------------|
Tap to rate this tab
 
# A B C D E F G H I J K L M N O P Q R S T U V W X Y Z