Guitaretab - guitar tabs
Song name
# A B C D E F G H I J K L M N O P Q R S T U V W X Y Z

Di-rect - Freerider tab

Di-rect Ė Freerider

Riff1 ( Tijdens intro)
e|----12--10--------------12--10----------------9-------------------------------
B|---12-------12--10-----12-------12--10--9--8----------------------------------
G|--12------------------12------------------------------------------------------

Riff2 ( Wordt tijdens het couplet gespeeld. Improviseer een klein beetje )
E|------------------------------------------------------------------------------
B|--------------------------------------12------14--12--------------------------
G|--9--11--13----9-----------9--11--13------13----------13----------------------
D|------------------11--9-----------------------------------14------------------

  [ Couplet ] Riff2
Youíre one of them, you want to fly
Being a madman, touching the sky
Come on now, grap your deck
Find a spot where you can break your neck
Everything is fine
Ride your board, itís not a crime!

  [ Refrein ]
E     A   B             G
Hey dude, I think itís understood
Hey man, you have to understand
Hey boy, to me it ainít no toy
Hey dude, Iím feeling good!
[ Tab from: http://www.guitaretab.com/d/di-rect/30940.html ]
  [ Couplet ] Riff2
Everybody is looking at your tricks in the sky
But you don't even know what it is to die
And now you crash down and you know it's a fact
You could break every bone in your body, that's wack
That three-sixty flip was a bad idea
Cause now you're falling and you're having some fears

  [ Refrein ]
E     A   B             G
Hey dude, I think itís understood
Hey man, you have to understand
Hey boy, to me it ainít no toy
Hey dude, Iím feeling good!

  [ Bridge] ( ROCK!!! Korte slagen )
     E                   E
Now look at you, you've got some pain
 E                    G
That's the risk man, that's just the game
Come on, go on, make a trick
Do your thing and make it stick
Would you stay? Or get away?
Impress your friends like Danny Wayn
You're the sport, it's inside
Grab your deck and take a ride, a free ride!!!

  [ Refrein ]
F#    B   C#            A
Hey dude, I think itís understood
Hey man, you have to understand
Hey boy, to me it ainít no toy
Hey dude, Iím feeling good!

--------------------------------------------------------------------

De bas had ik ook, maar ben ik kwijt geraakt. Lijkt op het volgende:

D|------------------------------------------------------------------
A|-------2----7---------2----5---------2----7-----------------------
E|--0--------------0--------------0---------------------------------
Related for Freerider tab