Song name
# A B C D E F G H I J K L M N O P Q R S T U V W X Y Z

Di - Colors And Blood tab

-----------------------------------------------------------------------------
		 Colors And Blood - D.I.
-----------------------------------------------------------------------------

Band : D.I.
Song : Colors And Blood
Album : State Of Shock

Tuning : Standard


First tab. If you want to correct it or complete it, feel free!


Intro :


e|---------------------------------------------|
B|---------------------------------------------|   
G|--12-12-12-12-12-12--11-11--12-12--9---------|    x6
D|---x--x--x--x--x--x---x--x---x--x--x---------|
A|--10-10-10-10-10-10---9--9--10-10--7---------|
E|---------------------------------------------|


Then : 

e|---------------------------------------------|
B|---------------------------------------------|
G|---------------------------------------------|
D|-2-2~---5--5-5--5-5-5--2-2~---5--5-5--5-5-5--|
A|-2-2~---5--5-5--5-5-5--2-2~---5--5-5--5-5-5--|
E|-0-0~---3--3-3--3-3-3--0-0~---3--3-3--3-3-3--|


Tap to rate this tab
 
# A B C D E F G H I J K L M N O P Q R S T U V W X Y Z