Song name
# A B C D E F G H I J K L M N O P Q R S T U V W X Y Z

Di - I Hate Surfing In Hb tab

Verse:
E---------------------------|
B---------------------------|
G---------------------------|
D---------------------------|
A-7-77--55-88--7-77--88-55--|
E-5-55--33-66--5-55--66-33--|

Chorus:
E-----------------------------------------|
B-----------------------------------------|
G-----------------------------------------|
D-4444-6666-9999-6666-4444-6666-99999999--|
A-2222-4444-7777-4444-2222-4444-77777777--|
E-----------------------------------------|

Riff During 2nd chorus:
E---------------------------------|
B---------------------------------|
G-12-12-12---13-13-13---16-16-16--|
D---------------------------------|
A-10-10-10---11-11-11---14-14-14--|
E---------------------------------|

End:
E----------|
B----------|
G----------|
D----------|
A-777-8-7--|
E-555-6-5--|

Tap to rate this tab
# A B C D E F G H I J K L M N O P Q R S T U V W X Y Z