Song name
# A B C D E F G H I J K L M N O P Q R S T U V W X Y Z

Dia Frampton - Daniel chords

Highlighted       Show chord diagrams
-------------------------------------------------------------------------------
			     Dia Frampton - Daniel
-------------------------------------------------------------------------------
Tabbed by: day
Email: 

Tuning: Standard 

One of the Dia Frampton's best from her new album Red.

Picking Pattern 
===============
Almost the entire song is picked like the intro/verse, so once you get a hang
of that, the rest of the song should be easy. Also, there's a good amount of 
ornamentation done with the B and G strings that I did not include in the
tabs since they're scattered a bunch. Basically, the song just switches around 
from the B-string 0, 1 and 3; G-string 0, 2... at least from what I've heard.

One last thing
==============
There's a lot of walking up/down the E, A and D strings, so I've marked those
similar to: G-A-B-C. This translates to the first four notes in the intro/verse
right below. They'll all be your basic C Major notes:

G = 6th string, 3rd fret
A = open 5th string
B = 5th string, 2nd fret
C = 5th string, 3rd fret
D = open 4th string
E = 4th string, 2nd fret
F = 4th string, 3rd fret
G = 4th string, 5th fret 



Intro/Verse Picking Pattern
===========================
   G A B C      B         A               F               G           G A B C
e|----------------------------------------------------------------------------|
B|----------1---1---1---1---1---1---3---1---1---1---3---1---1---1---1---------|
G|----------0---0---0---0---0---0---0---0---0---0---0---0---0---0---0---------|
D|----------------------------------------------------------------------------|
A|---0-2-3----3---2---2---0---0---0---0---------------------------------0-2-3-|
E|-3--------------------------------------1---1---1---1---3---3---3---3-------|

Intro
=====
G-A-B-C (walk the bass down)
C Am/B? (x2x01x) Am F G

Verse
=====
G-A-B-C
C Am/B? Am F G
x2 

Pre-Chorus
==========
Dm Am/B? C D-E (D-string 0 -> 2)
Dm Am/B? C
Dm Am/B? C B Am/F (102210) (arp.)

Chorus
======
Am Am/B? C F G
Am Am/B? C D-E-F-E-G
x4

Repeat Intro
Repeat Verse x2 

Pre-Chorus 2
============
F G C B-C-D
D B C B-C-D
D B C C/F (132010)
Am/F (102210) (arp.)

Chorus x2

Bridge
======
Dm Am/B? C D-E-F-E-G G-F-E-D
Dm Am/B? C D-E-F-E-G (320003 -- strum down)

Chorus x2

Outro
=====
C Am/B? Am
F (arp.) G (320003 -- strum down)


************************************

| /   slide up
| \   slide down
| h   hammer-on
| p   pull-off
| ~   vibrato
| +   harmonic
| x   Mute note
| b   Bend
| pb  Pre-bend
| br  Bend release
| pbr Pre-bend release
| brb Bend release bend

************************************
Tap to rate this tab
# A B C D E F G H I J K L M N O P Q R S T U V W X Y Z