Song name
# A B C D E F G H I J K L M N O P Q R S T U V W X Y Z

Diablo Dimes - Down For Nothin tab

Help us improve GuitareTab! Take a short survey!
Hiya, this is a lil' tab i've put of a really great artist: Diablo Dimes. This is one of 
best records called "Down For Nothin'". hope you all like it :D

Peace xx

==================================

Tabbed By: hxc___robb
Email: hxc___robb@hotmail.co.uk

==================================

Tuning: Standard /EADGBe

Tempo: 97 bpm

Time Signature: 4/4

Key Signature: C

Capo: 3 Fret

==================================
Main Chord Progression -

Gtr. 1 (Acoustic)
x4
||--0-0-0-0-0-0-0-0-0-0-0-0-|-0-0-0-0-0-0-0-0-0-0-0-0-0--||
||--1-1-3-1-1-1-1-1-1-1-1-1-|-1-1-3-1-1-1-1-1-1-1-1-1-1--||
||--0-0-0-0-0-0-2-2-2-2-2-2-|-0-0-0-0-0-0-2-2-2-2-2-2-2--||
||--2-2-2-2-2-2-2-2-2-2-2-2-|-2-2-2-2-2-2-2-2-2-2-2-2-2--||
||--3-3-3-3-3-0-0-0-0-0-0-0-|-3-3-3-3-3-0-0-0-0-0-0-0-0--||
||--------------------------|----------------------------||

Gtr. 2 (Clean Tone)
x1
||----------------------------|-----3---5---6---7-----7\--||
||--(1)-(1)-1/3-1-1-----5-5-5-|---------------------------||
||------------------0/2-------|-2/4---4---4---4-----------||
||----------------------------|---------------------------||
||----------------------------|---------------------------||
||----------------------------|---------------------------||

==================================
Break -

Gtr 1. (Acoustic)
x1
||--3-3-3-3-3-3-3-3-|--------||
||--0-0-0-0-0-0-0-0-|--------||
||--0-0-0-0-0-0-0-0-|--------||
||--0-0-0-0-0-0-0-0-|--------||
||--2-2-2-2-2-2-2-2-|-----2--||
||--3-3-3-3-3-3-3-3-|-3/5----||

==================================
Chorus -

Gtr 1. (Acoustic)
x4
||--0-0-0-0-0-0-0-0-|-0-0-0-0-0-0-0-0-|-0-0-0-0-0-0-0-0-|-3-3-3-3-3-3-3-3--||
||--1-1-1-1-1-1-1-1-|-1-1-1-1-1-1-1-1-|-1-1-1-1-1-1-1-1-|-0-0-0-0-0-0-0-0--||
||--2-2-2-2-2-2-2-2-|-0-0-0-0-0-0-0-0-|-2-2-2-2-2-2-2-2-|-0-0-0-0-0-0-0-0--||
||--2-2-2-2-2-2-2-2-|-2-2-2-2-2-2-2-2-|-2-2-2-2-2-2-2-2-|-0-0-0-0-0-0-0-0--||
||--0-0-0-0-0-0-0-0-|-3-3-3-3-3-3-3-3-|-0-0-0-0-0-0-0-0-|-2-2-2-2-2-2-2-2--||
||------------------|-----------------|-----------------|-3-3-3-3-3-3-3-3--||

Gtr. 2 (Clean Tone)
x1
||-----3---5---6---7-----7\--||
||---------------------------||
||-2/4---4---4---4-----------||
||---------------------------||
||---------------------------||
||---------------------------||

==================================
Song Structure -

Intro
Verse
Break
Verse
Break
Chorus
Verse
Break
Chorus
Intro


==================================
http://www.diablodimes.com/
Related for Down For Nothin tab