Song name
# A B C D E F G H I J K L M N O P Q R S T U V W X Y Z

Diabo Na Cruz - Dona Ligeirinha tab

DIABO NA CRUZ - DONA LIGEIRINHA (Virou! -2009)

INTRO:
e|----------------------------------|
B|----------------------------------|
G|-9-9-9-7-5-5-5-4-7-7-5-5-4-4-4-4--|
D|-9-9-9-7-5-5-5-4-7-7-5-5-4-4-4-4--|
A|-7-7-7-5-3-3-3-2-5-5-3-3-2-2-2-2--|
E|----------------------------------|3x

e|----------------------------------|
B|----------------------------------|
G|-9-9-9-7-5-5-5-4-7-7-5-5----------|
D|-9-9-9-7-5-5-5-4-7-7-5-5-5--------|
A|-7-7-7-5-3-3-3-2-5-5-3-3-5--------|
E|-------------------------3--------|

VERSES:
e|--------------------|
B|--------------------|
G|------------7-5-----|
D|-5-5---5-5--7-5-5-5-|
A|-5-5---5-5--5-3-5-5-|
E|-3-3---3-3------3-3-|2x

e|--------------------|
B|--------------------|
G|-9-9---5-5--7-5-4-4-|
D|-9-9---5-5--7-5-4-2-|
A|-7-7---3-3--5-3-2-2-|
E|--------------------|

e|--------------------|
B|--------------------|
G|------------7-5-----|
D|-5-5---5-5--7-5-5-5-|
A|-5-5---5-5--5-3-5-5-|
E|-3-3---3-3------3-3-|

-Repeat INTRO-

-Repeat VERSES-

CHORUS:
e|-------------------------|
B|-------------------------|
G|-9-9-9-9-9-9-7-7-7-7-7-7-|
D|-9-9-9-9-9-9-7-7-7-7-7-7-|
A|-7-7-7-7-7-7-5-5-5-5-5-5-|
E|-------------------------|2x

e|--------------------------------------------|
B|--------------------------------------------|
G|/5-5-5-5-5-5-4-4-4-4-4-4-5-7-7-7-5-4--------|
D|/5-5-5-5-5-5-4-4-4-4-4-4-5-7-7-7-5-4-5--5-5-|
A|/3-3-3-3-3-3-2-2-2-2-2-2-3-5-5-5-3-2-5--5-5-|
E|-------------------------------------3--3-3-|

-Repeat Verses-

-Repeat Chorus-

-Repeat Intro-

-Repeat Chorus-

e|-----------|
B|-----------|
G|-----------|
D|-5---------|
A|-5-----5---|
E|-3-5-7---7-|

-Repeat Chorus-

TAB by: MARK
www.mark.pt.la

Lyrics:
Antes da chegada eu disse-lhe ao ouvido
Esse teu amigo mais parece teu amor 
Nem todo o cacheiro é para andar contigo
Larga lá o osso oh fidalgo roedor

Haja algum bom senso, Dona Ligeirinha
Olhe que o comércio/conversa lhe afugenta muita gente 
Antes da chegada, oiça o que eu lhe digo
Escolha o bom caminho que é para o rosto andar contente

Vou largar o que a mamã levou à perna
Quer agora evitar o seu bom pai oh-ai
Tanto orgulho numa só mulher moderna oh-ai 
Que ora corre ora cai
Tap to rate this tab
 
# A B C D E F G H I J K L M N O P Q R S T U V W X Y Z