Song name
# A B C D E F G H I J K L M N O P Q R S T U V W X Y Z

Diabo Na Cruz - Os Loucos Estao Certos tab

DIABO NA CRUZ - OS LOUCOS ESTAO CERTOS (Virou! -2009)

VERSES (2x):
e|-8-x-8-x-x-x-5-x-5-x-x-x-8-x-8-8-8-8-5-x-5-x-x-x-|
B|-6-x-6-x-x-x-6-x-6-x-x-x-6-x-6-6-6-6-5-x-5-x-x-x-|
G|-5-x-5-x-x-x-5-x-5-x-x-x-5-x-5-5-5-5-5-x-5-x-x-x-|
D|-------------------------------------------------|
A|-------------------------------------------------|
E|-------------------------------------------------|

e|-8-x-8-x-x-x-5-x-5-x-x-x-5-x-x-8-x-x-5-|
B|-6-x-6-x-x-x-6-x-6-x-x-x-6-x-x-6-x-x-5-|
G|-5-x-5-x-x-x-5-x-5-x-x-x-5-x-x-5-x-x-5-|
D|---------------------------------------|
A|---------------------------------------|
E|---------------------------------------|

CHORUS (2x):
e|-8-8-8-8-x-5-5-x-8-8-8-x-5-5-x-5-5-5-8-8-8-5--|
B|-6-6-6-6-x-6-6-x-6-6-6-x-6-6-x-6-6-6-8-8-8-5--|
G|-5-5-5-5-x-5-5-x-5-5-5-x-5-5-x-5-5-5-5-5-5-5--|
D|----------------------------------------------|
A|----------------------------------------------|
E|----------------------------------------------|

-Repeat Verses-

VERSES 2:
e|-10-x-10-10-10-10-x-|
B|--8-x--8--8--8--8-x-|
G|--7-x--7--7--7--7-x-|
D|--------------------|
A|--------------------|
E|--------------------|3x

e|-5-5-5-5-5-|
B|-6-5-5-5-5-|
G|-5-5-5-5-5-|
D|-----------|
A|-----------|
E|-----------|

e|-8-x-8-x-x-x-5-x-5-x-x-x-5-x-x-8-x-x-5-|
B|-6-x-6-x-x-x-6-x-6-x-x-x-6-x-x-6-x-x-5-|
G|-5-x-5-x-x-x-5-x-5-x-x-x-5-x-x-5-x-x-5-|
D|---------------------------------------|
A|---------------------------------------|
E|---------------------------------------|

e|-8----------------------------|
B|-6---6------6-----6-----6-----|
G|-5-----5------5-----5-----5---|
D|---------5------5-----5-----5-|
A|------------------------------|
E|------------------------------|2x (On the last part is more than 2)

--

SOLO:
e|-8-8-8-8-5-5-5-5-8-8-8-8-6-6-5-5-|
B|-6-6-6-6-6-6-6-6-6-6-6-6-6-6-5-5-|
G|-5-5-5-5-5-5-5-5-5-5-5-5-6-6-5-5-|
D|---------------------------------|
A|---------------------------------|
E|---------------------------------|

e|-8-8-8-8-5-5-5-5-10-x-x-12-x-x-13-|
B|-6-6-6-6-6-6-6-6--8-x-x-10-x-x-11-|
G|-5-5-5-5-5-5-5-5--7-x-x--9-x-x-10-|
D|----------------------------------|
A|----------------------------------|
E|----------------------------------|

-Repeat Verses-

-Repeat Verses 2-

--

-Repeat Chorus 2x-


TAB by: MARK
www.mark.pt.la


Lyrics:
Os loucos estão certos
Os certos estão fartos
Os fartos são modernos com os pés no chão

Os sogros estão pobres
Os pobres estão mortos
Os mortos são vivos em preservação

O bairro está cheio
As cheias estão à porta
O António das chamuças mudou de canal

Os loucos estão certos
 É preciso ouvi-los
Foram avisados não nos querem mal

Os loucos estão parvos
Os parvos estão no trono
O trono que era bênção fez-se maldição 

Os trilhos estão cruzados
A fome aí à espera
O tio veio ao casório para insultar o irmão

Os padres comem putos
Os putos comem ratos
Na igreja de São Torpes hoje há bacanal

Os loucos estão certos
É preciso ouvi-los
Foram avisados não nos querem mal

Ai, ai, ai
Já que a gente se habitua ao ai
Ai, ai, ai
Já que a borga continua
Já que o ritmo não recua
Seja o filho avô do pai

Os loucos estão certos
Os certos estão fartos
Os fartos são modernos com os pés no chão

Os trilhos estão cruzados
A fome aí à espera
O tio veio ao casório para insultar o irmão

Os padres comem putos
Os putos comem ratos
Na igreja de São Torpes hoje há bacanal

Os loucos estão certos
É preciso ouvi-los
Foram avisados não nos querem mal

Ai, ai, ai
Já que a gente se habitua ao ai
Ai, ai, ai
Já que a borga continua
Já que o ritmo não recua
Seja o filho avô do pai
Tap to rate this tab
 
# A B C D E F G H I J K L M N O P Q R S T U V W X Y Z