Song name
# A B C D E F G H I J K L M N O P Q R S T U V W X Y Z

Diabo Na Cruz - Tao Lindo tab

-------------------------------------------------------------------------------
			             TÃO LINDO ('MTV Brand: New' Version) - Diabo na Cruz
-------------------------------------------------------------------------------
Tabbed by: Nytrogod
Email: pmvtl@hotmail.com

Tuning: Standard (EADGBe)

WARNING!!: This is the tab for the 'MTV Brand: New' live version.
It's basically exactly the same thing as the studio version.
The only differences are some parts repeated less times and that.



INTRO:  G7 (xx576x) (23)
        G (xx578x) (x1)


e|-----------------|
B|--6-8-6-8-6-8-8--|
G|--7-7-7-7-7-7-7--| (x6)
D|--5-5-5-5-5-5-5--|
A|-----------------|
E|-----------------|

e|-----------------------------------------------------------|
B|--6-8-6-8--------------------------------------------------|
G|--7-7-7-7--------------------------------------------------|
D|--5-5-5-5--------------------------------------------------|
A|----------10-10-10-10-13-13-13-13-15-15-15-15-17-17-17-17--|
E|-----------------------------------------------------------|

e|---------------------------------------|
B|---------------------------------------|
G|-----------------------------8-10-8-7--| (x2)
D|---------------------------------------|
A|--10-10-10-8-10--10-10-10-10-----------|
E|---------------------------------------|

e|--------------|
B|--------------|
G|--------------|
D|--------------|
A|--10-10-10-8--|
E|--------------|


G  F  Dm  (x3)


e|----------------|
B|----------------|
G|--8--8----------|
D|--8--8--3--3-5--|
A|--6--6--3--3-5--|
E|--------1--1-3--|


1st VERSE:

G
Entre ruínas fui criado
Foi farado viu nascer
Ó menina tem cuidado
A dança é com pés no chão
Diz-se cobras e lagartos
Da obra que eu fiz erguer
Só que as vigas tão fundadas
E um dia abre à razão


(keyboard lick during verse:)

e|-------------------|
B|-------------------|
G|-------------------|  (x8)
D|-------------------|
A|------------1---5--|
E|--3-3-3-3-3---3----|


1st PRE-CHORUS:


              Não adianta ver o todo pela metade,    siga o caminho que a noite anunciou
e|----------------------------------------------------------------------------------------|
B|----------------------------------------------------------------------------------------|
G|----------7-7-----8-8---------5-5----------------7-7------8-8-----5-5--------------7-7--|
D|--5-5-----7-7-----8-8---------5-5---------5-5----7-7------8-8-----5-5------5-5-----7-7--|
A|--5-5-----5-5-----6-6---------3-3---------5-5----5-5------6-6-----3-3------5-5-----5-7--|
E|--3-3-------------------------------------3-3------------------------------3-3----------|


1st CHORUS:

  D#
A lebre está no prado,
   C                    G
as silvas no silvado, olé,
Ai é tão lindo, 
Ai é tão lindo!


e|---------------------------------------|
B|---------------------------------------|
G|-----------------------------8-10-8-7--| (x2)
D|---------------------------------------|
A|--10-10-10-8-10--10-10-10-10-----------|
E|---------------------------------------|

e|-------------------------------------------------------------------------------------|
B|-------------------------11--11-11-13--13---11--11-11-10--10--10---11--11-11-13--13--|
G|---------------12--12-12-------------------------------------------------------------|
D|-------------------------------------------------------------------------------------|
A|--10-10-10-8-------------------------------------------------------------------------|
E|-------------------------------------------------------------------------------------|

e|----------------|
B|----------------|
G|--8--8----------|
D|--8--8--3--3-5--|
A|--6--6--3--3-5--|
E|--------1--1-3--|


2nd VERSE:   (repeat keyboard lick)

G
Dona Isilda cante o fado
Que a rainha já morreu
Quem tem cu vê com atraso
Em César o que é seu
Já dizia o sr. Gonçalves
Emigrado no Gerês
'Onde é que hoje se penhora
O mundo em português?'


2nd PRE-CHORUS

              Os mensageiros da luso-tempestade, já eram fufas muito antes do prior
e|------------------------------------------------------------------------------------------|
B|------------------------------------------------------------------------------------------|
G|----------7-7--------8-8-------5-5-------------7-7------8-8-------5-5----------------7-7--|
D|--5-5-----7-7--------8-8-------5-5------5-5----7-7------8-8-------5-5--------5-5-----7-7--|
A|--5-5-----5-5--------6-6-------3-3------5-5----5-5------6-6-------3-3--------5-5-----5-7--|
E|--3-3-----------------------------------3-3----------------------------------3-3----------|


2nd CHORUS:

   D#
Há festa na herdade
     C                   G
Se o amo acorda tarde, olé,
Ai é tão lindo,
Ai é tão lindo!


(after drum solo:)

G7 (xx576x) (11)
G (xx578x) (x1)


e|-----------------|
B|--6-8-6-8-6-8-8--|
G|--7-7-7-7-7-7-7--| (x2)
D|--5-5-5-5-5-5-5--|
A|-----------------|
E|-----------------|

e|-----------------------------------------------------------------------|
B|--6-8-6-8--------------------------------------------------------------|
G|--7-7-7-7--------------------------------------------------------------|
D|--5-5-5-5--------------------------------------------------------------|
A|----------10-10-10-10-13-13-13-13-15-15-15-15-17-17-17-17-17-17-17-17--|
E|-----------------------------------------------------------------------|

3rd CHORUS:

  D#
A lebre está no prado,
   C                    G
as silvas no silvado, olé,
Ai é tão lindo, 
Ai é tão lindo!


END
Tap to rate this tab
 
# A B C D E F G H I J K L M N O P Q R S T U V W X Y Z