Song name
# A B C D E F G H I J K L M N O P Q R S T U V W X Y Z

Diabo Na Cruz - Combate Com Batida tab

DIABO NA CRUZ - Combate com Batida TAB (Com Sérgio Godinho) with lyrics/com letra (Combate EP) 

INTRO:
Eu não penso como tu
Eu não como do teu prato
Mal a dança chega a meio
O teu corpo fica fraco
Eu não fui nunca esconder
Três anzóis atrás do morro
Pr'a pescar uma sereia que pedia socorro

-P1:
e|---------------|
B|---------------|
G|-----------3---|
D|-3-3-3---5---5-|
A|-------6-------|
E|---------------|

-P2:
e|---------------------------|
B|-----------------5-3-------|
G|-5-5-5-5-5-5-5-5-----5-2-5-|
D|-5-5-5-5-------------------|
A|-3-3-3-3-------------------|
E|---------------------------|

e|---------------3-----------|
B|---------6-6-6---5-3-6-3---|
G|-5-5-5-5-----------------5-|
D|-5-5-5-5-------------------|
A|-3-3-3-3-------------------|
E|---------------------------|

e|------------------------|
B|-----------------5-3----|
G|-5-5-5-5-5-5-5-5-----5-2|
D|-5-5-5-5----------------|
A|-3-3-3-3----------------|
E|------------------------|

e|---------------------------------|
B|---------------------------------|
G|-2-2-2-2-2-2-2-2-4-4-4-4-4-4-4-4-|
D|-2-2-2-2-2-2-2-2-4-4-4-4-4-4-4-4-|
A|-----------------2-2-2-2-2-2-2-2-|
E|---------------------------------|

VERSES:
e|----------------------------|
B|----------------------------|
G|-5-5---------5-5--------5-5-|
D|-5-5---------5-5--------5-5-|
A|-3-3---------3-3--------3-3-|
E|----------------------------|
       Eu não penso como tu
e|--------------------------|
B|--------------------------|
G|---------5-5------5\3/5-5-|
D|---------5-5------5\3/5-5-|
A|---------3-3------3\1/3-3-|
E|--------------------------|
   Não sou pinto de aviário
e|--------------------------|
B|--------------------------|
G|-----------5-5--------5-5-|
D|-----------5-5--------5-5-|
A|-----------3-3--------3-3-|
E|--------------------------|
   Que opina com quatro dentes
e|--------------------|
B|--------------------|
G|---5-5------5/7\5-5-|
D|---5-5------5/7\5-5-|
A|---3-3------3/5\3-3-|
E|--------------------|
   E foge do confessionário
e|--------------------------|
B|--------------------------|
G|-----------5-5--------5-5-|
D|-----------5-5--------5-5-|
A|-----------3-3--------3-3-|
E|--------------------------|
     Eu não ando para roubar
e|-----------------------|
B|-----------------------|
G|------5-5------5\3/5-5-|
D|------5-5------5\3/5-5-|
A|------3-3------3\1/3-3-|
E|-----------------------|
   Ovas cruas de lampreia
e|--------------------------|
B|--------------------------|
G|-----------5-5--------5-5-|
D|-----------5-5--------5-5-|
A|-----------3-3--------3-3-|
E|--------------------------|
  Arribada à foz do Lima
e|-----------------------|
B|-----------------------|
G|------5-5------5/7\5-5-|
D|------5-5------5/7\5-5-|
A|------3-3------3/5\3-3-|
E|-----------------------|
  Onde o cardume escasseia


-REPEAT INTRO P1-


CHORUS:
e|----------------------------|
B|----------------------------|
G|---10-----------------10----|
D|---10-----------------10-10-|
A|---8------------------8--10-|
E|-------------------------8--|
   E agora venha o vira da cidade
e|-------------------------------|
B|-------------------------------|
G|---10--------------------10----|
D|---10--------------------10-10-|
A|---8---------------------8--10-|
E|----------------------------8--|
   Armado da sandália até aos dentes

É que a vida, óai
Tem mais vida, óai, óai
Com batida, óai

e|--------------------------|
B|--------------------------|
G|--------------------------|
D|---------10------------10-|
A|---------10------------10-|
E|---------8-------------8--|
E olha não sei, olha não sei
e|--------------------------------|
B|--------------------------------|
G|--------------------------------|
D|---8---8----8---8----8---8---10-|
A|---8---8----8---8----8---8---10-|
E|---6---6----6---6----6---6---8--|
Olha não sei, não sei, não sei não

e|---------------------|
B|---------------------|
G|-------------------3-|
D|-----------------3-3-|
A|-----------------1-1-|
E|---------------------|
Se é pior andar em vidro
e|---------------------|
B|---------------------|
G|-------------------5-|
D|-----------------5-5-|
A|-----------------3-3-|
E|---------------------|
Ou só ir pr'onde outros vão - 3x

-REPEAT INTRO P2-2X

VERSES:
Eu não penso como tu
Eu não dou pra teu catraio
Vá, afina essa rasteira
E verás que eu nunca caio
Cem exércitos quiseram
Roubar a jóia do reino
Já noventa soçobraram
E dez seguem o treino.

-REPEAT INTRO P1-

-REPEAT CHORUS-

e|---------|
B|---------|
G|-5-5-5-5-|
D|-5-5-5-5-|
A|-3-3-3-3-|
E|---------|


TAB by: MARK
www.mark.pt.la
Tap to rate this tab
# A B C D E F G H I J K L M N O P Q R S T U V W X Y Z