Song name
# A B C D E F G H I J K L M N O P Q R S T U V W X Y Z

Diabolical Masquerade - Under The Banner Of The Sentinel tab

Beyond the Spiritual Moon
by 
Diabolicl Masquerade
from the album: Ravendusk In My Heart.

Transcribed by: Lord Balsama (P.Mackay) 
                         with help from BMF!

Email:         lord_balsama@hotmail.com
	
	First off, let me state that I am not really sure which DM song this is.  I believe it is Beyond the Spiritual Moon, but it could be the song after it.  Due to the fact that I have a tape of the album, it is unclear which song this really is.  Please let me know.

Tab Notation:

p.m.	-palm mute
......	-uncertain of number of times notes played 
	 (listen to song)
h	-hammer-on
~	-tremolo pick

Tuning: E

Bass and drums lead in....

Riff1
d--9-9-12-12-11-11-9------9-----------9------
a---------------------------12-----10-12----9-10

d--9-9-12-12-11-11-9-----9---------
a--------------------------12----10-9-7

Riff2
g------0-------0------0-------0-
d----0---0--0---0--0--0---0--0
a--0------2-------3------5-------

g------0-------0------0-----------------
d----0---0--0---0--0--0---------------
a--0------2-------3------5--8-7h8h7-
E----------------------------------------8

Riff3
d---------5--5--7--7--5--5----------------2
a--2--2--3--3--5--5--3--3--2-3-2-0------
e--0--0----------------------------------3---

d---------5--5--6--6--5--5----
a--2--2--3--3--4--4--3--3---5--4
e--0--0------------------------3--2

Riff4
g--2-2----2-2----5-5----4-4---4-5-4-5
d--2-2----3-3----3-3----4-4---4-5-4-5
a-------0--------0------0-----0-----------

Riff5(a)
g--3------2-------3------2----------------
d--3------2-------3------2------3-2------
a-----0~-----0~-----0~----0~------3-2-

g--3------2-------3------2--------7---9--
d--3------2-------3------2--------5---7--
a-----0~-----0~-----0~----0~-----------

(b)
g--3------2-------3------2----------------
d--3------2-------3------2------3-2------
a-----0~-----0~-----0~----0~------3-2-

g--3------2-------3------2--------7---5--
d--3------2-------3------2--------5---3--
a-----0~-----0~-----0~----0~-----------

Riff6
b-----------------------5-6-5-3-5
g--2------4------5----5-5-5-4-5
d--2------4------5---------------
a-----0~----0~----0~-----------

b---------------------3--1
g--4------5----------4--2
d--4------5---------------
a-----0~------0~---------

d--------------------------------------
a--4-5-5.......-4-5-5......4-5-6......
e--2-3-3.......-2-3-3......2-3-4......
           p.m...         .......        .......  

Riff7
g------2-------4-------5-------7-
d----2--2---4---4---5--5---7---7
a--0------2--------3------5-------

Riff8
d--9--12--11--9------9---------------9----------
a-------------------12----10-10--12-----9--9-10

d--9--12--11--9------9-----------
a-------------------12----10--9--7

Play an open E5 chord behind Riff8

I believe that is it.  There are a lot of minor 3rds in this song, so it was difficult for me to transcribe.  There are probably some mistakes.  Sorry!  Let me know of any corrections.  
Also, if anyone wants to tab the solo, please send it to me.  Thanks.... 
--====================987654321_0==_
Content-Type: text/plain; charset="us-ascii"

--====================987654321_0==_--
Tap to rate this tab
# A B C D E F G H I J K L M N O P Q R S T U V W X Y Z