Song name
# A B C D E F G H I J K L M N O P Q R S T U V W X Y Z

Diabolical Masquerade - Beyond A Spiritual Moon tab

Beyond A Spiritual Moon - Diabolical Masquerade
Trascription by : P. Mackay (Balsama)
E-Mail address :  lord_balsama@hotmail.com
 
Tuning: E

Tab Notation:
~            -tremolo pick
....         -uncertain of times played (listen to record)
h            -hammer-on
p.m....      -palm mute


* Riff 1
E-|-------------------------------------------------------------------
B-|-------------------------------------------------------------------
G-|-------------------------------------------------------------------
D-|-9-9-12-12-11-11-9----9-------9------------------------------------
A-|-------------------12---10-12----9-10------------------------------
E-|-------------------------------------------------------------------
 
* 
* 
* 
* continued
E-|-------------------------------------------------------------------
B-|-------------------------------------------------------------------
G-|-------------------------------------------------------------------
D-|-9-9-12-12-11-11-9----9--------------------------------------------
A-|-------------------12----10-9-7------------------------------------
E-|-------------------------------------------------------------------
 
* 
* 
* 
* Riff 2
E-|-------------------------------------------------------------------
B-|-------------------------------------------------------------------
G-|-----0-------0-------0------0--------0------0------0---------------
D-|---0---0---0---0---0---0--0---0----0---0--0---0--0---0----8-7h8h7--
A-|-0-------2-------3-------5-------0------2-------3------5----------8
E-|-------------------------------------------------------------------
 
* 
* 
* 
* Riff 3
E-|-------------------------------------------------------------------
B-|-------------------------------------------------------------------
G-|-------------------------------------------------------------------
D-|-----5-5-7-7-5-5------------2-------5-5-6-6-5-5--------------------
A-|-2-2-3-3-5-5-3-3--2h3-2-0-------2-2-3-3-4-4-3-3-5-4----------------
E-|-0-0----------------------3-----0-0-------------3-2----------------
 
* 
* 
* 
* Riff 4
E-|-------------------------------------------------------------------
B-|-------------------------------------------------------------------
G-|-2-2---2-2---5-5---4-4---4-5-4-5-----------------------------------
D-|-2-2---3-3---3-3---4-4---4-5-4-5-----------------------------------
A-|-----0-----0-----0-----0-------------------------------------------
E-|-------------------------------------------------------------------
 
* 
* 
* 
* Riff 5a
E-|-------------------------------------------------------------------
B-|-------------------------------------------------------------------
G-|--3----2----3----2------------3----2----3----2----7-9--------------
D-|--3----2----3----2---3-2------3----2----3----2----5-7--------------
A-|----0~---0~---0~--0~-----3-2----0~---0~---0~---0~------------------
E-|-------------------------------------------------------------------
 
* 
* 
* 
* 
  Riff 5b
E-|-------------------------------------------------------------------
B-|-------------------------------------------------------------------
G-|--3----2----3----2------------3----2----3----2----7-5--------------
D-|--3----2----3----2---3-2------3----2----3----2----5-3--------------
A-|----0~---0~---0~--0~-----3-2----0~---0~---0~---0~------------------
E-|-------------------------------------------------------------------

*
*
*
* Riff 6
E-|-------------------------------------------------------------------
B-|------------------5-6-5-3-5----------------------------------------
G-|--2----4----5-----5-5-5-4-5--4----5----3-1-------------------------
D-|--2----4----5----------------4----5----4-2-------------------------
A-|----0~---0~---0~---------------0~---0~-----------------------------
E-|-------------------------------------------------------------------
 
* 
* 
* 
* Riff 7
E-|-------------------------------------------------------------------
B-|-------------------------------------------------------------------
G-|-------------------------------------------------------------------
D-|-------------------------------------------------------------------
A-|--4-5-5-----4-5-5-----4-5-6----------------------------------------
E-|--2-3-3....-2-3-3....-2-3-4.......---------------------------------
         .....     .....      .......
* 
* 
* 
* Riff8
E-|-------------------------------------------------------------------
B-|-------------------------------------------------------------------
G-|-------------------------------------------------------------------
D-|----2----4----5----7-----------------------------------------------
A-|---2-2--4-4--5-5--7-7----------------------------------------------
E-|-0----2-----3---5--------------------------------------------------
 
* 
* 
* 
* Riff9
E-|-------------------------------------------------------------------
B-|-------------------------------------------------------------------
G-|-------------------------------------------------------------------
D-|-9-12-11-9----9----------9----------9-12-11-9----9-----------------
A-|-----------12---10-10-12---9-9-10-------------12---10-9-7----------
E-|-------------------------------------------------------------------
 
* 
* 
* 
* 
 Play an open E5 chord behind Riff8

I believe that is it.  There are a lot of minor 3rds in this song, 
so it was difficult for me to transcribe.  There are possibly some 
mistakes.  Sorry!  Let me know of any corrections.  Also, if anyone 
wants to tab the solo, please send it to me.  Thanks....
Tap to rate this tab
# A B C D E F G H I J K L M N O P Q R S T U V W X Y Z