Guitaretab - guitar tabs
Song name
# A B C D E F G H I J K L M N O P Q R S T U V W X Y Z
Home / D / Dial-7 / Faster tab

Dial-7 - Faster tab

Title: Faster
Artist: Dial-7
Album: Never Enough Time
Tabbed by Momo

Standard Tuning: EADGBE (440Hz) unless you're playing along w/ the cd.
In that case calibrate your tuner to 428Hz, standard: EADGBE

Intro
Riff 1 (x11) [fade in]                       Fill 1
1:------18----------------18-------------|   |------18-----------|
2:-17-17--17--14-17-13--17--17-----------|   |-17-17--17--14-17--|
3:-----------------------------16-15-16--|   |-------------------|
4:---------------------------------------|   |-------------------|
5:---------------------------------------|   |-------------------|
6:---------------------------------------|   |-------------------|

Riff 2
1:---------------|
2:---------------|
3:-5-5-5-4-4-4---|
4:-5-5-5-4-4-4---|
5:-3-3-3-2-2-2---|
6:-3-3-3-2-2-2---|

Riff 3 (x8)
1:-------------------|
2:-------------------|
3:-------------------|
4:-5--5/6-66-6/7-77--|
5:-5--5/6-66-6/7-77--|
6:-3--3/4-44-4/5-55--|

Riff 4A
1:----------------------------------------------3------------------------|
2:---------------------------------------------2-2-----------------------|
3:-------------------------------------------------/5---5-6-5b6r5\3-1-0--|
4:-5----5-5p4--4/5----5----//---------------5----------------------------|
5:-----------------------------------------4-4---------------------------|
6:----------------------------2///-\\\--3-3------------------------------|

Riff 4B (x6)                                 Fill 2
1:--------3-----------------------------|    |--------3--|
2:-------2-2----------------------------|    |-------2---|
3:-----------/5---5-6-5b6r5\3-1-0-------|    |-----------|
4:---5-5--------------------------------|    |---5-5-----|
5:----4---------------------------------|    |----4------|
6:-3------------------------------------|    |-3---------|
[ Tab from: http://www.guitaretab.com/d/dial-7/149690.html ]
Riff 2
1:-----------------|
2:-----------------|
3:--5-5-5--4-4-4---|
4:--5-5-5--4-4-4---|
5:--3-3-3--2-2-2---|
6:--3-3-3--2-2-2---|

Riff 3 (x8)
1:-------------------|
2:-------------------|
3:-------------------|
4:-5--5/6-66-6/7-77--|
5:-5--5/6-66-6/7-77--|
6:-3--3/4-44-4/5-55--|


Riff 5
[Gtr.1]
1:------------------------------|    |--------------|
2:------------------------------|    |--------------|
3:------------------------------|    |--------------|
4:------8-----------8-----------|x3  |------8-------|
5:-7-7---7---7---7----7---------|    |-7-7---7---7--|
6:----------9-8---------7-6-7---|    |----------9---|

[Gtr.2]
1:------------------------------|    |--------------|
2:-----11----------11-----------|    |-----11-------|
3:-9-9---9---9---9----9---------|    |-9-9---9---9--|
4:---------11-10----------------|x3  |---------11---|
5:----------------------9-8-9---|    |--------------|
6:------------------------------|    |--------------|

Riff 2
1:---------------|
2:---------------|
3:-5-5-5-4-4-4---|
4:-5-5-5-4-4-4---|
5:-3-3-3-2-2-2---|
6:-3-3-3-2-2-2---|

Riff 1 (x9)                                 Fill 1
1:------18----------------18-------------|  |------18-----------|
2:-17-17--17--14-17-13--17--17-----------|  |-17-17--17--14-17--|
3:-----------------------------16-15-16--|  |-------------------|
4:---------------------------------------|  |-------------------|
5:---------------------------------------|  |-------------------|
6:---------------------------------------|  |-------------------|

Riff 2
1:---------------|
2:---------------|
3:-5-5-5-4-4-4---|
4:-5-5-5-4-4-4---|
5:-3-3-3-2-2-2---|
6:-3-3-3-2-2-2---|

Ending
Riff 3 (x16)
1:-------------------|
2:-------------------|
3:-------------------|
4:-5--5/6-66-6/7-77--|
5:-5--5/6-66-6/7-77--|
6:-3--3/4-44-4/5-55--|


| /  slide up
| \  slide down
| h  hammer-on
| p  pull-off
| b  bend
| r  release
===============
Related for Faster tab
Advertisement will be closed in 10 seconds