Song name
# A B C D E F G H I J K L M N O P Q R S T U V W X Y Z

Dial-7 - Siete tab

-------------------------------------------------------------------------------
			                    Siete - Dial-7
-------------------------------------------------------------------------------
Album: Never Enough Time
Tabbed by: Momo

Standard Tuning: EADGBE (440Hz) unless you're playing along w/ the cd. 
In that case calibrate your tuner to 427Hz, standard: EADGBE

Intro
[Acoustic Guitar]
e|-0^---0-1-3--1h3p1p0---------------------------------1^----|
B|-0^------------------0-1-3-1h3p1p0-------------------1^----|
G|-1^---------------------------------2-1-2-1h2p1h2----2^----|
D|-2^--------------------------------------------------3^----|
A|-2^--------------------------------------------------------|
E|-0^--------------------------------------------------------|

e|-4p3-0-3-0-------------------0^---0-1-3--1h3p1p0----------------|
B|-----------3-1-0h1p0---------0^------------------0-1-3-1h3p1p0--|
G|----------------------0------1^---------------------------------|
D|------------------------0----2^---------------------------------|
A|-----------------------------2^---------------------------------|
E|-----------------------------0^---------------------------------|

e|-----------------1^----4p3-0-3-0--------------------0v---------||
B|-----------------1^--------------3-1-0h1p0----------0v---------||
G|-2-1-2-1h2p1h2---2^-------------------------0---0---1v---------||
D|-----------------3^---------------------------0-----2v---------||
A|----------------------------------------------------2v---------||
E|----------------------------------------------------0v---------||


Riff 1 (x4)
[Acoustic Guitar]
e|---0^-0--000----0^-0--000----0^-0--000----0^-0--000--||
B|---0^-0--000----0^-0--000----0^-0--000----0^-0--000--||
G|---1^-1--111----1^-1--111----2^-2--222----2^-2--222--||
D|-2-2^-----22----2^-----22----3^-----33----3^-----33--||
A|-2------------2------------3------------3------------||
E|-----------------------------------------------------||
  let ring throughout


Riff 2a (x4)                 Riff 2b (x4)                Fill 1
e|---------------------------|---------------------------|-------||
B|---------------------------|---------------------------|-------||
G|---------------------------|---------------------------|-------||
D|-------------2-3--0-2----0-|-------------2-3--0-2----0-|-------||
A|-----------------------3---|-----------------------3---|-------||
E|-0-1-1-0---4---------------|-0-1-1-0---4---------------|-0-1-0-||
 PM-------------------------|  PM-----------|


Riff 3
e|-------------------------------------------------------------------|
B|-------------------------------------------------------------------|
G|-3/(4)----------------------------3/(4)----------------------------|
D|-3/(4)-x-3--3-4-------------------3/(4)-x-3--3-4-------------------|
A|-1/(2)-x-3--3-4---5-5-5-01-0------1/(2)-x-3--3-4---5-5-5-01-0------|
E|-1/(2)-x-1--1-2---3-3--------3-1--1/(2)-x-1--1-2---3-3--------3-1--|
                    * *   *                          * *   *              
e|---------------------------------------------------||
B|---------------------------------------------------||
G|-3/(4)----------------------------3/(4)------------||
D|-3/(4)-x-3--3-4-------------------3/(4)-x-3--3-4---||
A|-1/(2)-x-3--3-4---5-5-5-01-0------1/(2)-x-3--3-4---||
E|-1/(2)-x-1--1-2---3-3--------3-1--1/(2)-x-1--1-2---||
                    * *   *      
* = PM     
                         

Riff 4 (x4)
e|--------------------||
B|--------------------||
G|-------------3/4/5--||
D|-5-5-5-3-3-3-3/4/5--||
A|-5-5-5-3-3-3--------||
E|-3-3-3-1-1-1--------||
  PM----------|


Fill 2             Riff 2a (x3)                Riff 2b (x4)               
e|-----------------|---------------------------|---------------------------|
B|-----------------|---------------------------|---------------------------|
G|-----------------|---------------------------|---------------------------|
D|---2-3--0-2----0-|-------------2-3--0-2----0-|-------------2-3--0-2----0-|
A|-------------3---|-----------------------3---|-----------------------3---|
E|-0---------------|-0-1-1-0---4---------------|-0-1-1-0---4---------------|
   PM-------------|  PM-----------------------|  PM-----------|

Fill 1 
e|--------||
B|--------||
G|--------||
D|--------||
A|--------||
E|-0-1-0--||
   
   
Riff 3
Riff 4 (x4)

Fill 3
e|------------------||
B|------------------||
G|-9---------(9)\\--||
D|-9---------(9)\\--||
A|-7---------(7)\\--||
E|------------------||

Solo
e|-----------------------------------------------------------|
B|-----------11-12-11----------------------------------------|
G|-13~----13----------13-11-10b11r10----------10-11-13~-13~--|
D|-----------------------------------11~---11----------------|
A|-----------------------------------------------------------|
E|-----------------------------------------------------------|

e|-----------------------------------------||
B|-----11-12-11----11-11b12----12b14---\\--||
G|--13----------13-------------------------||
D|-----------------------------------------||
A|-----------------------------------------||
E|-----------------------------------------||


Riff 3
e|-------------------------------------------------------------------|
B|-------------------------------------------------------------------|
G|-3/(4)----------------------------3/(4)----------------------------|
D|-3/(4)-x-3--3-4-------------------3/(4)-x-3--3-4-------------------|
A|-1/(2)-x-3--3-4---5-5-5-01-0------1/(2)-x-3--3-4---5-5-5-01-0------|
E|-1/(2)-x-1--1-2---3-3--------3-1--1/(2)-x-1--1-2---3-3--------3-1--|
                    * *   *                          * *   *                
e|---------------------------------------------------||
B|---------------------------------------------------||
G|-3/(4)----------------------------3/(4)------------||
D|-3/(4)-x-3--3-4-------------------3/(4)-x-3--3-4---||
A|-1/(2)-x-3--3-4---5-5-5-01-0------1/(2)-x-3--3-4---||
E|-1/(2)-x-1--1-2---3-3--------3-1--1/(2)-x-1--1-2---||
                    * *   *      
* = PM     


Riff 4 (x4)
1:--------------------||
2:--------------------||
3:-------------3/4/5--||
4:-5-5-5-3-3-3-3/4/5--||
5:-5-5-5-3-3-3--------||
6:-3-3-3-1-1-1--------||
  PM----------|


Ending
1:---------------------------------------||
2:---------------------------------------||
3:-9-------(9)-\\------------------------||
4:-9-------(9)-\\-------------2-3--0-2---||
5:-7-------(7)-\\------------------------||
6:-7-------(7)-\\-----0-1p0-4------------||
                      *     *
* = PM


| ^  arpeggio - low to high
| v  arpeggio - high to low
| /  slide up
| \  slide down
| h  hammer-on
| p  pull-off
| b  bend
| r  release
| ~  vibrato
| x  Mute note
| PM Palm mute
===============================================================================
Tap to rate this tab
# A B C D E F G H I J K L M N O P Q R S T U V W X Y Z