Guitaretab - guitar tabs
Song name
# A B C D E F G H I J K L M N O P Q R S T U V W X Y Z
Home / D / Dial-7 / Jr tab

Dial-7 - Jr tab

Title: Jr.
Artist: Dial-7
Album: Never Enough Time
Tabbed by Momo

Standard Tuning: EADGBE (440Hz) unless you're playing along w/ the cd.
In that case calibrate your tuner to 430Hz, standard: EADGBE

Intro
[Gtr.2] (bass arranged for Gtr) - notes actually played an octave lower
1:-------------------------------------------|
2:-------------------------------------------|
3:-------------------------------------------|
4:--7h9-7------------------------------------|
5:--------9--7h8p7----8-7-------8-x-7--------|
6:-----------------10------7-10-------10-10--|
    #
# = grace note


Riff 1 (about x10)
[Gtr.2] (bass arranged for Gtr)
1:-----------------------|
2:-----------------------|
3:-----------------------|
4:-----------------------|
5:-----------8-x-7-------|
6:-7-10-7-10------10-10--|

[Gtr.1]
1:--------7---------------------------------------------------------------------------------------------:
2:-----------------------------------------------------------------------------7------------------------:
3:---9b10----9-7-\-------------------------------------------------------------7-7------------7---------:
4:-----------9-7-\-------------------------------------------------------------7----9---7h9-x----9p7h9--:
5:-----------------------8-x-7------------------8-x-7------------------8-x-7-5--------------------------:
6:------------------7-10-------10-10--7-10-7-10-------10-10--7-10-7-10----------------------------------:
                    PM-----------------------------------------------------| ***------------------------:
* = let ring

:--------------------------------------------------------------------------------------------------:
:--------------------------------------------------------------------------------------------------:
:-7-9-7-9-7-9-7-9-7-9-7-9-7--9/11-\---9-7-9-7-9-7-9-7-9-7------x-9-7-9-7-9-7-9-7-9-7-9-7--9/11-\---:
:----------------------------------------------------------9---------------------------------------:
:--------------------------------------------------------------------------------------------------:
:--------------------------------------------------------------------------------------------------:

:--------------------||
:--------------------||
:-7h9-7-------7------||
:-------9-7-9---9-7--||
:--------------------||
:--------------------||
  #

Riff 2
1:-----------------------------------------|
2:-----------------------------------------|
3:-----------------------------------------|
4:--9-9-88-7-7-76-6-9----9-9-88-7-7-76-6---|
5:--9-9-88-7-7-76-6-9----9-9-88-7-7-76-6---|
6:--7-7-66-5-5-54-4-7----7-7-66-5-5-54-4---|


Riff 3a
1:-----------------------------------------------------------------------------|
2:-----7h9p7-7--7--------7h9p7-7--7------------------7-7------------------7-7--|
3:-----7h9p7-7--7--------7h9p7-7--7----7-9---9---8---7-7----7-9---9---8---7-7--|
4:-9-9-7h9p7-7--7--/9-/9-7h9p7-7--7--9-----8---7---7-7-7--9-----8---7---7-7-7--|
5:-9---------------------------------------------------------------------------|
6:-7---------------------------------------------------------------------------|


Riff 3b
1:---------------------------------------------------------------------------|
2:---7h9p7-7--7--------7h9p7-7--7------------------7-7------------------7-7--|
3:---7h9p7-7--7--------7h9p7-7--7----7-9---9---8---7-7----7-9---9---8---7-7--|
4:-9-7h9p7-7--7--/9-/9-7h9p7-7--7--9-----8---7---7-7-7--9-----8---7---7-7-7--|
5:---------------------------------------------------------------------------|
6:---------------------------------------------------------------------------|


Riff 4 (x4)
1:------------------------|
2:------------------7-7---|
3:----7-9---9---8---7-7---|
4:--9-----8---7---7-7-7---|
5:------------------------|
6:------------------------|


Riff 3b
1:---------------------------------------------------------------------------|
2:---7h9p7-7--7--------7h9p7-7--7------------------7-7------------------7-7--|
3:---7h9p7-7--7--------7h9p7-7--7----7-9---9---8---7-7----7-9---9---8---7-7--|
4:-9-7h9p7-7--7--/9-/9-7h9p7-7--7--9-----8---7---7-7-7--9-----8---7---7-7-7--|
5:---------------------------------------------------------------------------|
6:---------------------------------------------------------------------------|

[ Tab from: http://www.guitaretab.com/d/dial-7/81640.html ]
Riff 5
1:------------------------|
2:------------------------|
3:------------------------|
4:--9-9-88-7-7-76-6-9\\---|
5:--9-9-88-7-7-76-6-9\\---|
6:--7-7-66-5-5-54-4-7\\---|


Intro
[Gtr.2] (bass arranged for Gtr)
1:-------------------------------------------|
2:-------------------------------------------|
3:-------------------------------------------|
4:--7h9-7------------------------------------|
5:--------9--7h8p7----8-7-------8-x-7--------|
6:-----------------10------7-10-------10-10--|
    #

Riff 1 (about x10)
[Gtr.2] (bass arranged for Gtr)
1:-----------------------|
2:-----------------------|
3:-----------------------|
4:-----------------------|
5:-----------8-x-7-------|
6:-7-10-7-10------10-10--|

[Gtr.1]
1:--------7---------------------------------------------------------------------------------------------:
2:-----------------------------------------------------------------------------7------------------------:
3:---9b10----9-7-\-------------------------------------------------------------7-7------------7---------:
4:-----------9-7-\-------------------------------------------------------------7----9---7h9-x----9p7h9--:
5:-----------------------8-x-7------------------8-x-7------------------8-x-7-5--------------------------:
6:------------------7-10-------10-10--7-10-7-10-------10-10--7-10-7-10----------------------------------:

                   PM-----------------------------------------------------| *****
* = let ring

:--------------------------------------------------------------------------------------------------:
:--------------------------------------------------------------------------------------------------:
:-7-9-7-9-7-9-7-9-7-9-7-9-7--9/11-\---9-7-9-7-9-7-9-7-9-7------x-9-7-9-7-9-7-9-7-9-7-9-7--9/11-\---:
:----------------------------------------------------------9---------------------------------------:
:--------------------------------------------------------------------------------------------------:
:--------------------------------------------------------------------------------------------------:

:--------------------||
:--------------------||
:-9-7----------------||
:-----9-7------------||
:---------9-8-7------||
:---------------10---||


Riff 6 (x2)
1:---------------------|
2:---------------------|
3:---------------------|
4:--9-9-88-7-7-76-6-9--|
5:--9-9-88-7-7-76-6-9--|
6:--7-7-66-5-5-54-4-7--|


Riff 7 (x4)
1:-------------------|
2:-------------------|
3:-------------------|
4:--9-9-88-7-7-76-6--|
5:--9-9-88-7-7-76-6--|
6:--7-7-66-5-5-54-4--|


Riff 3a
1:-----------------------------------------------------------------------------|
2:-----7h9p7-7--7--------7h9p7-7--7------------------7-7------------------7-7--|
3:-----7h9p7-7--7--------7h9p7-7--7----7-9---9---8---7-7----7-9---9---8---7-7--|
4:-9-9-7h9p7-7--7--/9-/9-7h9p7-7--7--9-----8---7---7-7-7--9-----8---7---7-7-7--|
5:-9---------------------------------------------------------------------------|
6:-7---------------------------------------------------------------------------|


Riff 3b
1:---------------------------------------------------------------------------|
2:---7h9p7-7--7--------7h9p7-7--7------------------7-7------------------7-7--|
3:---7h9p7-7--7--------7h9p7-7--7----7-9---9---8---7-7----7-9---9---8---7-7--|
4:-9-7h9p7-7--7--/9-/9-7h9p7-7--7--9-----8---7---7-7-7--9-----8---7---7-7-7--|
5:---------------------------------------------------------------------------|
6:---------------------------------------------------------------------------|


Riff 4 (x4)
1:------------------------|
2:------------------7-7---|
3:----7-9---9---8---7-7---|
4:--9-----8---7---7-7-7---|
5:------------------------|
6:------------------------|


Riff 3b
1:---------------------------------------------------------------------------|
2:---7h9p7-7--7--------7h9p7-7--7------------------7-7------------------7-7--|
3:---7h9p7-7--7--------7h9p7-7--7----7-9---9---8---7-7----7-9---9---8---7-7--|
4:-9-7h9p7-7--7--/9-/9-7h9p7-7--7--9-----8---7---7-7-7--9-----8---7---7-7-7--|
5:---------------------------------------------------------------------------|
6:---------------------------------------------------------------------------|


Riff 7 (x3)
1:-------------------|
2:-------------------|
3:-------------------|
4:--9-9-88-7-7-76-6--|
5:--9-9-88-7-7-76-6--|
6:--7-7-66-5-5-54-4--|

Ending
1:----------7---|
2:----------7---|
3:-------x--8---|
4:-9--9--x--9---|
5:-9--9--x------|
6:-7--7---------|


| /  slide up
| \  slide down
| h  hammer-on
| p  pull-off
| b  bend up
| x  Mute note
| PM Palm mute
===============
Related for Jr tab
Advertisement will be closed in 10 seconds