Song name
# A B C D E F G H I J K L M N O P Q R S T U V W X Y Z

Dial-7 - Havent You Heard tab

Title: Haven't You Heard?
Artist: Dial-7
Album: Never Enough Time
Tabbed by Momo

Standard Tuning: EADGBE (440Hz) unless you're playing along w/ the cd.
In that case calibrate your tuner to 433Hz, standard: EADGBE

Riff 1a (x3)                      Riff 1b
[Gtr. 1]
1:---------------------------|    |------------------------------|
2:---------------------------|    |------------------------------|
3:---5-5p0-------x--7p5-7p5--|    |---5-5p0----------------------|
4:-7-------5-7-7-------------|    |-7-------5-7--7-5-4-----------|
5:---------------------------|    |--------------------5-4-------|
6:---------------------------|    |------------------------2-3-4-|

[Gtr. 2] (joins in when Riff 1a repeats for a 2nd time)
1:---------------------------------------|
2:----------------------------8b10--r8---|
3:---------------------------------------|
4:-7-----7--7----7-----------------------|
5:-7-----7--7----7-----------------------|
6:-5-----5--5----5-----------------------|


Riff 2 (x2; 2nd time, no fill)                    Fill 1
1:------------------------|    |-----------------|-------------|
2:------------------------|    |-----------------|-------------|
3:------------------------|    |-----------------|-------------|
4:------2-3------5-3--2---|x3  |------2-3--------|-------------|
5:-0--0----2---3-------3--|    |-0--0----2---3---|-------------|
6:------------------------|    |-----------------|----2-3-4----|
 |------------------ light PM ---------------------------------|


Riff 3 (x2)
1:-----------------------------|
2:-----------------------------|
3:-----------------------------|
4:-7--7--x-x-x-x--7--7--x-5----|
5:-7--7--x-x-x-x--7--7--x-5----|
6:-5--5--5-5-5-5--5--5--x-3----|
         + + + +


Riff 2 (x2; 2nd time, no fill)                    Fill 1
1:------------------------|    |-----------------|-------------|
2:------------------------|    |-----------------|-------------|
3:------------------------|    |-----------------|-------------|
4:------2-3------5-3--2---|x3  |------2-3--------|-------------|
5:-0--0----2---3-------3--|    |-0--0----2---3---|-------------|
6:------------------------|    |-----------------|----2-3-4----|
 |------------------ slight PM --------------------------------|

[Gtr. 2] (joins when Riff 2 repeats for 2nd time)
1:-------------------------------|
2:--0---<12>------0---<12>-------|
3:-------------------------------|
4:-------------------------------|
5:-------------------------------|
6:-------------------------------|
 <> natural harmonic - lightly touch string over 12th fret


Riff 3 (x2)
1:-----------------------------|
2:-----------------------------|
3:-----------------------------|
4:-7--7--x-x-x-x--7--7--x-5----|
5:-7--7--x-x-x-x--7--7--x-5----|
6:-5--5--5-5-5-5--5--5--x-3----|
         + + + +


Riff 4 (x4)
1:----15-12----14-15----12---------------|
2:-------------------------13----13-15---|
3:-14-------14-------12-------11---------|
4:---------------------------------------|
5:---------------------------------------|
6:---------------------------------------|

Riff 1a
1:---------------------------|
2:---------------------------|
3:---5-5p0-------x--7p5-7p5--| x2
4:-7-------5-7-7-------------|
5:---------------------------|
6:---------------------------|

==========================================================================================================
Solo [Gtr. 2] (clean)
1:---------------------------------------------------------------------------------------|
2:---------------------------------------------------------------------------------------|
3:-----------------------------------------------0---0h2p0-------------------------------|
4:--------------/2--0-0-----0------------------2-----------2-0h2-------0-2-0-------------|
5:--------0-2-3-----------3---3-2-3-2------------------------------0-3-------3-----3-0---|
6:-0-0-5------------------------------3-0--------------------------------------3-0-------|
                                                             #
# = grace note

Riff 1a [Gtr. 1] (playing quietly in background during solo)
1:---------------------------|
2:---------------------------|
3:---5-5p0-------x--7p5-7p5--| x8
4:-7-------5-7-7-------------|
5:---------------------------|
6:---------------------------|

============================================================================================================

Riff 1a [Gtr. 1]                  Riff 1b
1:---------------------------|    |------------------------------|
2:---------------------------|    |------------------------------|
3:---5-5p0-------x--7p5-7p5--|    |---5-5p0----------------------|
4:-7-------5-7-7-------------|    |-7-------5-7--7-5-4-----------|
5:---------------------------|    |--------------------5-4-------|
6:---------------------------|    |------------------------2-3-4-|

[Gtr. 2]
1:---------------------------------------|
2:----------------------------8b10--r8---|
3:---------------------------------------|
4:-7-----7--7----7-----------------------|
5:-7-----7--7----7-----------------------|
6:-5-----5--5----5-----------------------|


Riff 2 (x2; 2nd time, no fill)                    Fill 2
 [Gtr. 1]                                         [Gtr. 2]
1:------------------------|    |-----------------|------------<5>----|
2:------------------------|    |-----------------|----------<5>------|
3:------------------------|    |-----------------|---<7>-<5>---------|
4:------2-3------5-3--2---|x3  |------2-3--------|-------------------|
5:-0--0----2---3-------3--|    |-0--0----2---3---|-------------------|
6:------------------------|    |-----------------|-------------------|
 |------------------- light PM --------------------------------------|


Riff 3 (x2)
1:-----------------------------|
2:-----------------------------|
3:-----------------------------|
4:-7--7--x-x-x-x--7--7--x-5----|
5:-7--7--x-x-x-x--7--7--x-5----|
6:-5--5--5-5-5-5--5--5--x-3----|

         + + + +

Riff 4 (x4)
1:----15-12----14-15----12---------------|
2:-------------------------13----13-15---|
3:-14-------14-------12-------11---------|
4:---------------------------------------|
5:---------------------------------------|
6:---------------------------------------|

Riff 3 (x4)
1:-----------------------------|
2:-----------------------------|
3:-----------------------------|
4:-7--7--x-x-x-x--7--7--x-5----|
5:-7--7--x-x-x-x--7--7--x-5----|
6:-5--5--5-5-5-5--5--5--x-3----|
         + + + +

Ending
1:------------------|
2:------------------|
3:------------------|
4:-7----------------|
5:-7----------------|
6:-5----------------|
       fade out


| /  slide up
| \  slide down
| h  hammer-on
| p  pull-off
| b  bend up
| r  release
| +  harmonic
| x  Mute note
| PM Palm mute
===============
Tap to rate this tab
# A B C D E F G H I J K L M N O P Q R S T U V W X Y Z