Song name
# A B C D E F G H I J K L M N O P Q R S T U V W X Y Z

Diamond Head - Shoot Out The Lights tab

|----------------------------------------------------------------|
|----------------------------------------------------------------|
|-----------6----------------------------------------------------|
|-4-4--2--4-6--6-6-6-6-6-6-6-6-----------------------------------|
|-4-4--2--4-4--6-6-6-6-6-6-6-6-----------------------------------|
|-2-2--0--2----4-4-4-4-4-4-4-4-----------------------------------|
 Repeat this riff numerous times

 Riff B
|------------------------------------------------------|
|------------------------------------------------------|
|-7-7-7-7-7-7-7-7--6-6-6-6-6-6-6-6--5-5-5-5-5-5-5-5--4-|
|-7-7-7-7-7-7-7-7--6-6-6-6-6-6-6-6--5-5-5-5-5-5-5-5--4-|
|-5-5-5-5-5-5-5-5--4-4-4-4-4-4-4-4--3-3-3-3-3-3-3-3--2-|
|------------------------------------------------------|

That's the entire song except for the solo, just repeat those riffs over and over, 
for timing.
Tap to rate this tab
 
# A B C D E F G H I J K L M N O P Q R S T U V W X Y Z