Song name
# A B C D E F G H I J K L M N O P Q R S T U V W X Y Z

Diamond Head - Play It Loud tab

Guitar Legend:
(0-0-0----0-0-0)= all notes are palm muted
5^{7}= full bend
5^{7}^{5}= full bend, then bring string back to original position
x= finger mute
/\= slide up or down


PLEASE NOTE: There are many different versions of this song, most are nearly identical.
It was originally released as a single, but I tabbed this from Behold The Beginning(1986).
All the riffs in the song are the same so this tab is good for any version you might hear.
Also, the spacing is NOT EQUAL to the timing. Listen to the song for the correct timing.

Riff 1:
|----------------3-x-3-3--x-1-x-1-1--/-4-4-4\-------------------------------|
|-------5-x-5-5--3-x-3-3--x-1-x-1-1--/-5-5-5\-------------------------------|
|-------2-x-2-2------------------------4-4-4\-------------------------------|
|-(2-2)---------------------------------------------------------------------|
|-(2-2)---------------------------------------------------------------------|
|---------------------------------------------------------------------------|

-----------3-x-3-3--x-1-x-1-1--/-4-4--------------------------------------|
-5-5-5--5--3-x-3-3--x-1-x-1-1--/-5-5--------------------------------------|
-2-2-2--2------------------------4-4--------------------------------------|
-2-2----------------------------------------------------------------------|
--------------------------------------------------------------------------|
--------------------------------------------------------------------------|


Riff 2:
|----------3-x-3-x-5-x-5\-------------------------------------------------|
|----------3-x-3-x-5-x-5\-------------------------------------------------|
|-------------------------------------------------------------------------|
|-------------------------------------------------------------------------|
|-------------------------------------------------------------------------|
|-0-7-5-7-----------------------------------------------------------------|


Riff 3:
|------------------3----------3--------3--------------------------------------|
|------------------3----------3--------3-5^{7}^{5}----------------------------|
|----------------------------------------5^{7}^{5}----------------------------|
|-----------------------------------------------------------------------------|
|-----------------------------------------------------------------------------|
|-0-7-5-7-(0-0-0------0-0-0------0-0)-----------------------------------------|

------------3----------3-------3----------------------------------------------|
------------3----------3-------3-5^{7}^{5}------------------------------------|
---------------------------------5^{7}^{5}------------------------------------|
------------------------------------------------------------------------------|
------------------------------------------------------------------------------|
-(0-0-0-0------0-0-0------0-0)------------------------------------------------|


Riff 4:
|-------------------------------3---------------------------------------------|
|-------------5---------5-------3-5^{7}^{5}-----------------------------------|
|-------------2---------2---------5^{7}^{5}-----------------------------------|
|-----------------------------------------------------------------------------|
|--(2-2-2-2------2-2-2-----2-2)-----------------------------------------------|
|-----------------------------------------------------------------------------|


Riff 5:
|---------------------------3------------------------------------------------|
|-------5--------5----------3-5^{7}^{5}--------------------------------------|
|-------2--------2------------5^{7}^{5}--------------------------------------|
|----------------------------------------------------------------------------|
|----------------------------------------------------------------------------|
|-(2-2-----2-2------2-2-2)---------------------------------------------------|

---------------------------3--------------------------------------------------|
-------5--------5----------3-5^{7}--------------------------------------------|
-------2--------2------------5^{7}--------------------------------------------|
------------------------------------------------------------------------------|
------------------------------------------------------------------------------|
-(2-2-----2-2------2-2-2)-----------------------------------------------------|
Tap to rate this tab
 
# A B C D E F G H I J K L M N O P Q R S T U V W X Y Z