Song name
# A B C D E F G H I J K L M N O P Q R S T U V W X Y Z

Diamond Head - In The Heat Of The Night tab

Diamond Head
                      In The Heat Of The Night

Intro
-------------|
-------------|
-4-------4---|
-4-------4---|
-2-------2---|
-------------|

Verse
---------------------------------|
---------------------------------|
-4-----7-------------------------|
-4-----5-----7-----4-------------|
-2-----------7-----4-----5-5p4p0-|
-------------5-----2-------------|

First Chorus
-----------------------|-------|------------------|
-----------------------|-------|------------------|
-------------4-----2---|-------|------------------|
-5-----2-----4-----2---|--6-5--|--5---------------|
-5-----2-----2-----0---|--6-5--|--5-------5-5p4p0-|
-3-----0---------------|--4-3--|--3---------------|

Second Chorus
-----------------------|-------|--------------|
-----------------------|-------|--------------|
-------------4-----2---|-------|--------------|
-5-----2-----4-----2---|--6-5--|--5-------5x--|
-5-----2-----2-----0---|--6-5--|--5-------5x--|
-3-----0---------------|--4-3--|--3-------3x--|

Solo:
Play Verse riff X times, then play:
---------------------------------------------------|
---------------------------------------------------|
-4-------------------------------------------------|
-4-----5-----2-----4-------------------------------|
-2-----5-----2-----4---two times then ring out F#5-|
-------3-----0-----2-------------------------------|
then just go back to verse riff

Third Chorus
-----------------------|-------|--------------|
-----------------------|-------|--------------|
-------------4-----2---|-------|--------------|
-5-----2-----4-----2---|--6-5--|--5-------5x--|
-5-----2-----2-----0---|--6-5--|--5-------5x--|
-3-----0---------------|--4-3--|--3-------3x--|

Now Play Verse Riff before the outro
-----------|
-----------|
-----------|
-4---4-4x--|
-2---2-2x--|x4
-----------|


/metal_up_your_ass@2die4.com
Tap to rate this tab
# A B C D E F G H I J K L M N O P Q R S T U V W X Y Z