Song name
# A B C D E F G H I J K L M N O P Q R S T U V W X Y Z

Diamond Head - Ishmael tab

----------------------------------------------------------------------------
		         Ishmael - Diamond Head
----------------------------------------------------------------------------

Ishmael - Diamond Head

Transcribed by: Erik Poapst
Email: ramthemouton@hotmail.com

This was tabbed totally by ear so if you think there's anything weird about
it or if you think something might need changing, feel free to email me your
thoughts or suggestions. Lemme know what you think!


Here's the intro, it repeats itself throughout most of the song: 
     
                  
|-----------------------------------------------------|
|-----------------------------------------------------|
|--------0------------0------------0------------0-----|
|-----4-----4------4-----4------4-----4------4-----4--|
|--2------------0------------2------------0-----------|
|-----------------------------------------------------|


|-----------------------------------------------------|
|-----------------------------------------------------|
|--------0------------0------------0------------0-----|
|-----4-----4------4-----4------4-----4------4-----4--|
|--2------------0------------2------------0-----------|
|-----------------------------------------------------|


And that's about it! Hope you enjoy it!

  Erik
Tap to rate this tab
 
# A B C D E F G H I J K L M N O P Q R S T U V W X Y Z