Guitaretab - guitar tabs
Song name
# A B C D E F G H I J K L M N O P Q R S T U V W X Y Z

Diamond Neil - Little Drummer Boy tab

Band: The Almost
Song: Little Drummer Boy
Tabber: Keith C.
Tuning: Drop D

My first tab.  Leave positive comments please!

Intro/Chorus (Drum Part)

e|-------------|
B|-------------|
G|-------------|
D|--5--2--10---|
A|--5--2--10---|
D|--5--2--10---|
(Figure out the strumming)

Verse:
[ Tab from: http://www.guitaretab.com/d/diamond-neil/22037.html ]
e|-----------------------|
B|-----------------------|
G|-----------------------|
D|--5--2--10--5--10--7---|
A|--5--2--10--5--10--7---|
D|--5--2--10--5--10--7---|
(Figure out the strumming)

Outro:

e|------------------|
B|------------------|
G|------------------|
D|--5--7--5--7--5---|
A|--5--5--5--5--5---|
D|--5--5--5--5--5---|


So it goes:

Intro 2x
Verse 2x
Chorus 2x
Verse 2x
Chorus 4x
Outro 1x

And there it is.  Have fun!





Related for Little Drummer Boy tab