Song name
# A B C D E F G H I J K L M N O P Q R S T U V W X Y Z

Diamond Rio - Meet In The Middle tab

I know Jimmy Olander uses g & b benders, but this is a
way to play the intro without them. The First Ending has
two choices. The second is closer to the record, but the
first is nice to use sometimes for variety sake. On the
first ending do not play both bends in the song, it's
supposed to be one OR the other.


E--------------------------------0-------0------------------|
B-------------------------0---------7/9---------------------|
G--------9b-(11)r------------6---------------6\4----9b(11---|r
D--------9------------------------------------------9-------|
A-----------------------------------------------------------|
E---0----------------------------------------------0--------|

	1st Ending
----------------------------5-----|
----------------------------5-----|
---------------4b(6)r-- or--4-----|b(6)
---------------7------------------|
---------------7------------------|
              Let ring grad.release

Repeat the intro, 2nd Ending
E-----------5-------|
B-----------5-------|
G-----------4b6rb6--|
D-------------------|
A-------------------|
E--0\---------------|
Tap to rate this tab
# A B C D E F G H I J K L M N O P Q R S T U V W X Y Z