Song name
# A B C D E F G H I J K L M N O P Q R S T U V W X Y Z

Diana Krall - Girl In The Other Room tab

e-|--------------------------------------------------------------------------------------|
B-|----------4p4------------------4p4--------------------4p4----------4-------4p4--------|
G-|------0-------------------------------------------0-----------------------------------|
D-|---------------5-----------4---------5---------------------5-----------4---------5----|
A-|--3-------------------------------------------3---------------------------------------|
E-|----------(3)----------4-------(1h3)------------------(3)----------4---------(3)------|




e-|---------------------------------------------------------------------------3-3--3-3---3---|
B-|----------4p4------------------4p4--------------------4p4----------4-------4-4--4-4---4---|
G-|------0-------------------------------------------0---------------------------------------|
D-|---------------5-----------4---------5---------------------5-----------3------------------|
A-|--3-------------------------------------------3-------------------------------------------|
E-|----------(3)----------4-------(1h3)------------------(3)----------4-------(3)--(3)--(3)--|




             
e-|---3------3---------3--------------------------------------------------------|
B-|---4------4---------4------------------------4p4----------3---x---3----------|
G-|-----------------------------------------0--------5-------4---x--------------|
D-|-------------------------------4--------------------------4---x---4----------|
A-|-------------------------------------3--------------------3---x--------------|
E-|--(3)----(3)---3------0-1-3-4----------------(3)-----------------------------|





e-|-----3-4-3-1-3---1b----|
B-|---------------3----4--|
G-|-0---------------------|
D-|-----------------------|
A-|-----------------------|
E-|-----------------------|
Tap to rate this tab
 
# A B C D E F G H I J K L M N O P Q R S T U V W X Y Z