Song name
# A B C D E F G H I J K L M N O P Q R S T U V W X Y Z

Diana Ross - If We Hold On tab

-------------------------------------------------------------------------------
                                   If We Hold On Together (intro) - Diana Ross
-------------------------------------------------------------------------------
Tabbed by: Gokenshadow
Email: garbagegoku@yahoo.com

Tuning: EADGBE

e|------0-|3-----2-|2-1-5-8-|0-------|
B|----1---|--------|--------|----3---|
G|--0-----|--------|--------|--0-----|
D|--------|2-------|3-------|------0-|
A|3-------|--------|--------|3-------|
E|--------|--------|--------|----3---|

e|------0-|3-----2-|2-1-5-8-|0-------|
B|----1---|--------|--------|1---3---|
G|--0-----|--------|--------|--0-0---|
D|--------|2-------|3-------|------0-|
A|3-------|--------|--------|3-------|
E|--------|--------|--------|----3---|

************************************

| /   slide up
| \   slide down
| h   hammer-on
| p   pull-off
| ~   vibrato
| +   harmonic
| x   Mute note
| b   Bend
| pb  Pre-bend
| br  Bend release
| pbr Pre-bend release
| brb Bend release bend

************************************
Tap to rate this tab
 
# A B C D E F G H I J K L M N O P Q R S T U V W X Y Z