Diana Vickers - Once chords

Highlighted       Show chord diagrams
Diana Vickers
Songs Form A Tainted Cherry Tree
2010
Submitted by: paramore_fans@yahoo.com

Key: D

Tuning: Standard EADGBe

Chords used:
D -   xx0232
Em -  022000
E -   022100
F#m - 244222
G -   320033
A -   x02220
Bb -  x13331
Bm -  x24432


Intro:

Acoustic Guitar: D(all the way)

Piano:
e|-------14-15-14-15-14-15-------14-15-14-15-14-12-------14-15-14-15-14-15-|
B|-15-12-------------------15-12-------------------15-12-------------------|
G|-------------------------------------------------------------------------|
D|-------------------------------------------------------------------------|
A|-------------------------------------------------------------------------|
E|-------------------------------------------------------------------------|

e|-------14-15-14-15-14-15-|
B|-15-12-------------------|
G|-------------------------|
D|-------------------------|
A|-------------------------|
E|-------------------------|


Bass: Em-D-Em-G-

Distortion: G-D-Em--


Verse 1:
Bm     G       A
  Here we are a careful distance
G       Bm             A
  Heres my heart whats left of it
Bm   G           A
  In this town I used to listen
G     Bm    A
  Once  Once Yeah


Refrain 1:
D          F#m
  I had hope  blind faith
Bm           Bb
  had as much  as you can take


Chorus 1:
G    D          Em
  Im only gonna let you kill me once
G    D          Em      E
  Im only gonna let you kill
   G         D
me then some Im only
      Em
gonna let you kill me
Bm    G     A
  Once, Once, Once, yeah
G     Bm    A
  Once, Once, Once, yeah
Bm    G     A
  Once, Once, Once, yeah
G     Bm    (hold)
  Once, Once…


Verse 2:
Bm      G        A
  Ashes burn the morning after
G      Bm      A
  Only know Im here to stay
Bm  G        A
  I was so I let you see me
G      Bm           A
  That was dumb but thats OK


Refrain 2:
D
  Tripping down
F#m
   to your place
Bm            Bb
  What is love  anyway


Chorus 2:
G    D          Em
  Im only gonna let you kill me once
G    D          Em      E
  Im only gonna let you kill
   G         D
me then some Im only
      Em
gonna let you kill me
Bm    G     A
  Once, Once, Once, yeah
G     Bm    A
  Once, Once, Once, yeah
Bm    G     A
  Once, Once, Once, yeah
G    Bm         A
  Im only gonna let you kill me


Bridge:
G        Bm   Em
  You or whatever you do
G          Bm Em
  Dont let anyone love you
G            D        Em
  Touch them where it hurts
And then youll leave


Interlude: while doing the piano intro
G-D-Em-G-G-D-Em-E-G-D-Em-G-


(Repeat Chorus 2)


Outro: while doing the piano intro
G-D-Em-G- x2
Tap to rate this tab
 
# A B C D E F G H I J K L M N O P Q R S T U V W X Y Z