Song name
# A B C D E F G H I J K L M N O P Q R S T U V W X Y Z

Diane Cluck - Real Good Time tab

Diane Cluck/Real Good Time/Monarcana: Home Recordings 2001-2004

This is my first tab, I think it's pretty close though.
It sounds good with a capo on the 1st fret but it isn't necessary.

The whole song is pretty much just alternating between these two:
E-------------------3-----------|
B----1------0--------0-0---0----|
G---2-2-2--0-0-----0--0---0-0---|
D--2---2--2---2---2------2---2--|
A-0------2-----2-3------2-----2-|
E-------------------------------|

E-------------------3------0----|
B----1------0--------0-0--------|
G---2-2-2--0-0-----0--0---0-0---|
D--2---2--2---2---2------2---0--|
A-0------2-----2-3------2-------|
E-------------------------------|

at 1:37 its this:
E------------------3-0--5-0----|
B----1------0------------------|
G---2-2-2--0-0-----------------|
D--2---2--2---2---2-2--2-0-----|
A-0------2-----2-3----2--------|
E------------------------------|

E------------------5-0--7-0----|
B----1------0------------------|
G---2-2-2--0-0-----------------|
D--2---2--2---2---2-2--2-0-----|
A-0------2-----2-3----2--------|
E------------------------------|

E-------------------0----0-3---|
B----1------0---------1--------|
G---2-2-2--0-0-----0-----------|
D--2---2--2---2---2--2--2-2----|
A-0------2-----2-3-----2-------|
E------------------------------|

E------------------------------|
B----1------0------1--1--1-1---|
G---2-2-2--0-0-------0----0-0--|
D--2---2--2---2---2-2---2------|
A-0------2-----2-3-----2-------|
E------------------------------|

Then back to...
E-------------------3-----------|
B----1------0--------0-0---0----|
G---2-2-2--0-0-----0--0---0-0---|
D--2---2--2---2---2------2---2--|
A-0------2-----2-3------2-----2-|
E-------------------------------|

E-------------------3------0----|
B----1------0--------0-0--------|
G---2-2-2--0-0-----0--0---0-0---|
D--2---2--2---2---2------2---0--|
A-0------2-----2-3------2-------|
E-------------------------------|
Tap to rate this tab
 
# A B C D E F G H I J K L M N O P Q R S T U V W X Y Z