Song name
# A B C D E F G H I J K L M N O P Q R S T U V W X Y Z

Diante Do Trono - Me Ama tab

Me Ama
Diante do Trono

Tom: A

Intro: A  D  E  D

          A                A                A                     A
E|-------9--------|-------9--------|-------9--------|-9---9----9---9---9---9---|
B|---10-----10----|---10-----10----|---10-----10----|-10--10---10--10--10--10--|
G|-9--------------|-9--------------|-9--------------|-9---9----9---9---9---9---|
D|----------------|----------------|----------------|--------------------------|
A|----------------|----------------|----------------|--------------------------|
E|----------------|----------------|----------------|--------------------------|
           D                D                D                     D
E|-------9--------|-------9--------|-------9--------|-9---9----9---9---9---9---|
B|---10-----10----|---10-----10----|---10-----10----|-10--10---10--10--10--10--|
G|-7--------------|-7--------------|-7--------------|-7---7----7---7---7---7---|
D|----------------|----------------|----------------|--------------------------|
A|----------------|----------------|----------------|--------------------------|
E|----------------|----------------|----------------|--------------------------|
           E                 E               E                     E
E|-------12-------|-------12-------|-------12-------|-12--9----9---9---9---9---|
B|---12-----12----|---12-----12----|---12-----12----|-12--12---12--12--12--12--|
G|-9--------------|-9--------------|-9--------------|-9---9----9---9---9---9---|
D|----------------|----------------|----------------|--------------------------|
A|----------------|----------------|----------------|--------------------------|
E|----------------|----------------|----------------|--------------------------|

          D                D                D                     D
E|-------9--------|-------9--------|-------9--------|-9---9----9---9---9---9---|
B|---10-----10----|---10-----10----|---10-----10----|-10--10---10--10--10--10--|
G|-7--------------|-7--------------|-7--------------|-7---7----7---7---7---7---|
D|----------------|----------------|----------------|--------------------------|
A|----------------|----------------|----------------|--------------------------|
E|----------------|----------------|----------------|--------------------------|

A
Tens ciumes de mim
D
O Seu amor é como um furacão
E                                D
E eu me rendo ao vento de Sua misericórdia
A                                        D
Então de repente não vejo mais minhas aflições

Eu só vejo á glória

E
E percebo quão maravilhoso Ele é
      D
E o tanto que Ele me quer

A           D
Oh, Ele me amou
          E
Oh, Ele me ama
        D
Ele me amou

Ponte (Solo):
E|------------------------|
B|-/10--/9-----------10---|
G|----------6-------------|   (3x)
D|------------------------|
A|------------------------|
E|------------------------|

A5
Me ama
       D5
Ele me ama
       E5
Ele me ama
       D5
Ele me ama

A5
Somos Sua herança

E Ele o nosso galardão
D5
Seu olhar de graça nos atrai à redenção
      E5                         D5
Se a graça é um oceano, estamos afogando
    A5
O céu se une à terra como um beijo apaixonado
      D5
Meu coração dispara em meu peito acelerado
    E5
Não tenho tempo pra perder com ressentimentos
       D5
Quando penso que Ele

A5
Me ama
       D5
Ele me ama
       E5
Ele me ama
       D5
Ele me ama
Tap to rate this tab
 
# A B C D E F G H I J K L M N O P Q R S T U V W X Y Z