Song name
# A B C D E F G H I J K L M N O P Q R S T U V W X Y Z

Diazepunk - No Fue Mi Intencin tab

                         No fue mi intencin  Diazepunk

Tabbed by: monods
Mail: mono_aiden@hotmail.com

 = Palm mute

Intro:

Tranquila el tiempo...

e|----------|
B|----------|
G|----------|
D|-7--7-6-2|
A|-7--7-6-2-|
E|-5--5-4-0-|

Verso1:

Y lo sabes q pueda...

e|-----------------------------------------------|
B|-----------------------------------------------|
G|-7----6----4-------------------------7----9----|  x2
D|-7x16-7x16-4x16--5----7----6----4----7x16-9x16-|
A|-5----4----2-----5x16-7x16-7x16-4x16-5----7----|
E|-----------------3----5----4----2--------------|

Coro:

Y lo siento en verdad...

e|-----------------------------------------|
B|-----------------------------------------|
G|--------------------------------7---9----|
D|-7-7---7--6-6---6--4-4---4--2-2-7x6-9x6--|  x2
A|-7-7x6-7--7-7x6-7--4-4x6-4--2-2-5---7----|
E|-5-5---5--4-4---4--2-2---2--0-0----------|
                     

Parte despus del coro:

e|---------------|      |---------------------|
B|---------------|      |---------------------|
G|-666--777--999-|  x3  |-666-777777777-666-|
D|-777--777--777-|      |-777-777777777-777-|
A|---------------|      |---------------------|
E|---------------|      |---------------------|

Puente:

No mas ilusin sueos que...

e|------------------------|
B|------------------------|
G|----------7-----------7-|
D|-7-6--4--7--7--6--4--7-|
A|-7-7--4--5--7--7--4--5-|
E|-5-4--2-----5--4--2----|

Tocar verso 1 y despus el coro otra vs

Espero que les guste xq es el primer tab que hago ya que soy principiante en guitarra y 
creo q este del todo bien pro de todas maneras sigue el ritmo.
Tap to rate this tab
# A B C D E F G H I J K L M N O P Q R S T U V W X Y Z