Song name
# A B C D E F G H I J K L M N O P Q R S T U V W X Y Z

Dibya Subba - Yaad Haru tab

This tab took me a few time...
Anyway nice song and find the timing by yourself...
I couldn't manage the timing in guitar pro...
So, no guitar pro file for this tab....
Sorry....

Song  : Yaad Haru
Artist: Dibya Subba
Album : Pratha

From : Lama Tsubz

Intro:
E[---------12-11-7-7-------7-7-9---12---------12---]
B[-----1---------------7s9--------------12---------]
G[------------------------------------9------------]
D[-2-3-------------------------------------11------]
A[-------------------------------------------------]
E[-------------------------------------------------]

E[-16s14----14------2s4-2---2s12---]
B[-------17----17------------------]
G[---------------------------------]
D[---------------------------------]
A[---------------------------------]
E[---------------------------------]

Lead in middle:
E[-------7---------------7---------]
B[-7-5-7---9-7-5---7-5-7---9-7-4---]
G[---------------------------------]
D[---------------------------------]
A[---------------------------------]
E[---------------------------------]

E[-------------------24-21-19s21---16-16s17---19-19s21-19---]
B[-------4-5-4----------------------------------------------]
G[-4-1---------4-6------------------------------------------]
D[-----2----------------------------------------------------]
A[----------------------------------------------------------]
E[----------------------------------------------------------]

E[-12----12-11s12-----------11-14----7~-7-9---]
B[----12----------12-9---12-------14----------]
G[--------------------------------------------]
D[--------------------------------------------]
A[--------------------------------------------]
E[--------------------------------------------]

E[-12-9-7-9---16b-12-9-7-9---7s9-7---]
B[-----------------------------------]
G[-----------------------------------]
D[-----------------------------------]
A[-----------------------------------]
E[-----------------------------------]

E[----------------------------------------------]
B[---------------12-9---------------------12b---]
G[----9----11-11------11---9-11-9-11-9-11-------]
D[-11---11--------------------------------------]
A[----------------------------------------------]
E[----------------------------------------------]

Tablature Legend:
=================
s - slide
b - bend
~ - vibrato
Tap to rate this tab
# A B C D E F G H I J K L M N O P Q R S T U V W X Y Z