Song name
# A B C D E F G H I J K L M N O P Q R S T U V W X Y Z

Dicamillo Sisters - Whys It So Cold tab

Help us improve GuitareTab! Take a short survey!
Main riff
e|---------------------------------|
B|---------------------------------|
G|-7-9-7-11-12-9-7-9-7-9-7---------|
D|--9---9------------------10-9-10-|
A|---------------------------------|
E|---------------------------------|

Played in the chorus and whenever the main riff is played
e|--------------------------------|
B|--------------------------------|
G|--------9----5----7-------------|
D|---5---9-9--5-5--7-7------------|
A|--5-5-7----3----5---------------|
E|-3------------------------------|

Also in chorus
e|--------------------------------|
B|--------------------------------|
G|-------9--5--7------------------|
D|---5----------------------------|
A|-----7--3--5--------------------|
E|-3------------------------------|


Bridge x2
e|-------------------------------------------------------------------------------------|
B|-10---------10---------12----------12-------12--------12--------10---------10--------|
G|----9----------9----------12---------12----------------------------------------------|
D|------9----------9-----------9---------9------12-9------12-9------12-12------12-12---|
A|--------10---------10----------10-------10--------10--------10---------12---------12-|
E|-------------------------------------------------------------------------------------|

Bass Riff
G|--------------------------------|
D|--------------------------------|
A|-----------33-3-55--------------|
E|-33-3-00-0----------------------|
Related for Whys It So Cold tab