Guitaretab - guitar tabs
Song name
# A B C D E F G H I J K L M N O P Q R S T U V W X Y Z

Dice And K9 - Itsumo tab

artist: ITSUMO
by: Dice & K9
tabbed by: H4RD h_4_r_d_001@yahoo.com

Ewan ko sa iba... frst tym ko nka here ito na music since September 7,2003 ... ewan ko
tlga last yr pa iyan.. na download ko yan na music sa intrnet.. kya nag gwa ako ng tab
yan.. noong hnd pa yan uso... ngaun.. ewan ko na.. itsumo ka "sumo" means luma na... pro
anyway e2 ang nalalamn ko na tab...

Pro kailangan pla e2 ng dalawang guitar....

INTRO / VERSE / CHORUS: CONTINUE UNTIL END..


GUITAR 1

e|---------------------------|
b|---------------------------|
g|---------------------------|
d|---------------------------|
a|--0-2-33--33--3-22--22-----|
e|---------------------------|

				"OR"
[ Tab from: http://www.guitaretab.com/d/dice-and-k9/132392.html ]
e|---------------------------|
b|---------------------------|
g|---------------------------|
d|---------------------------|
a|---------------------------|
e|--1-3-4444--4-33--33------|


GUIATR 2

e|---4----4-----------------|
b|--2---------2-2-----------|
g|-3----3-------------------|
d|--------------------------|
a|--------------------------|
e|--------------------------|

                              "OR"

e|---3----3-------------------|
b|--1---------1-1-------------|
g|-2----2---------------------|
d|----------------------------|
a|----------------------------|
e|----------------------------|


kung tatlong guitar.. ok tlga e2..

Chords in Chorus at sa Intro dn pla... C..D..Em.. kayo na bhala kng ano ang strumming n2..

Pro kng mron kau organ, must ok tlga e2...

Just ask me kng mron mali sa aking tab... h_4_r_d_001@yahoo.com..
Related for Itsumo tab
Itsumo chords by Dice And K9