Song name
# A B C D E F G H I J K L M N O P Q R S T U V W X Y Z

Dick Brave And The Backbeats - Else Somebody tab

Dick Brave and the Backbeats - Else Somebody - Guitar Tabs -
Standard Tuning E-A-D-G-H-E


Intro:
e|-------------------------------------------|
H|-------------------------------------------|
G|---------------2-------2--5-5-4-4-2-2------|
D|--------2----2---0-3/4----------------4-4--|
A|--0-3/4----4-------------------------------|
E|-------------------------------------------|

e|----------------------------|
H|-------------------------3--|
G|--------------2-------2--2--|
D|--------2---2---0-3/4-------|
A|--0-3/4---4-----------------|
E|----------------------------|


Strophe: 2x
e|---------------------------------|
H|---------------------------------|
G|--------------2-------2-------2--|
D|--------2---2---0-3/4---0-3/4----|
A|--0-3/4---4----------------------|
E|---------------------------------|

e|-------------------------------------------|
H|-------------------------------------------|
G|--------------2-------2--5-5-4-4-2-2-------|
D|--------2---2---0-3/4----------------4-4---|
A|--0-3/4---4--------------------------------|
E|-------------------------------------------|

e|-----------------------------------|
H|-----------------------------------|
G|------------------------2-------2--|
D|--------2-------2-0-3/4---0-3/4----|
A|--0-3/4---0-2/4--------------------|
E|-----------------------------------|

e|--------------------------|
H|-----------------------3--|
G|--------------------2--2--|
D|--------2---2-0-3/4-------|
A|--0-3/4---4---------------|
E|--------------------------|


Refrain:
e|----------------------------------|
H|----------------------------------|
G|----------------------------------|
D|----------2-2-------------2-2-----|
A|--0-0-4-4-----4-4-0-0-4-4-----4-4-|
E|----------------------------------|

e-----------------------------------|
H------------------1-1--------------|
G----------2-2-4-4-----4-4-2-2------|
D--0-0-4-4---------------------4-4--|	3x
A-----------------------------------|
E-----------------------------------|

e|-----------------------------------|
H|-----------------------------------|
G|-----------------------------------|
D|----------2-2-------------2-2------|
A|--0-0-4-4-----4-4-0-0-4-4-----4-4--|
E|-----------------------------------|

e------------------------|
H-------------------1-1--|
G----------2-2-4-4-------|
D--0-0-4-4---------------|
A------------------------|
E------------------------|


Strope


Refrain:
e|----------------------------------|
H|----------------------------------|
G|----------------------------------|
D|----------2-2-------------2-2-----|
A|--0-0-4-4-----4-4-0-0-4-4-----4-4-|
E|----------------------------------|

e-----------------------------------|
H------------------1-1--------------|
G----------2-2-4-4-----4-4-2-2------|
D--0-0-4-4---------------------4-4--|	3x
A-----------------------------------|
E-----------------------------------|

e|-----------------------------------|
H|-----------------------------------|
G|-----------------------------------|
D|----------2-2-------------2-2------|
A|--0-0-4-4-----4-4-0-0-4-4-----4-4--|
E|-----------------------------------|

e--------------------------|
H-------------------1------|
G----------2-2-4-4----5-4--|
D--0-0-4-4-----------------|
A--------------------------|
E--------------------------|


Bridge:
e|-----|------|
H|-----|------|  Diese beiden Griffe
G|-----|------|  werden mehrmals im
D|--9--|--13--|  Wechsel gespielt.
A|--9--|--13--|
E|--7--|--11--|


Refrain: 2x

-----------------------------------------------------------------------------
Viel Spaß mit den Tabs ;) Da ich mir das so "zurechtgehört" habe, wird da wohl der ein 
oder andere Fehler drin sein, aber ich denke, das ist schonmal besser als garnichts.
Tap to rate this tab
# A B C D E F G H I J K L M N O P Q R S T U V W X Y Z