Song name
# A B C D E F G H I J K L M N O P Q R S T U V W X Y Z

Dick Dale - Shake N Stomp tab

TITLE: Shake'n'Stomp
Artist: Dick Dale

Apply Tremelo picking where needed.

Main Riff:
                 C                 C                 F
e|------------------------------------------------------|
B|------------------------------------------------------|
G|------------------------------------------------------|
D|---------------------------------------3-5-6-5-3---3--|
A|(--3-5-6-5-3)--3-----3-5-6-5-3---3---3-----------3----|
E|(3----------)3-----3-----------3----------------------|

                 C                 G                 F
e|------------------------------------------------------|
B|------------------------------------------------------|
G|------------------------------------------------------|
D|------------------------------------------------------|
A|---3-5-6-5-3---3-----3-5-6-5-3---------3-5-6-5-3---3--|
E|-3-----------3-----3-----------6-3---3-----------3----|

Repeat, but without the pick-up (parenthesissed) part.

Guitar Solo 1:
         C
e|-8-8-8-11--8-11--8-----------------------------|
B|-8-8-8-------------11-8------------------------|
G|------------------------10-8--------------8----|
D|-----------------------------10-8----8-10------|
A|----------------------------------10-----------|
E|-----------------------------------------------|

   C
e|-----------------------------------------------|
B|-----------------------------------------------|
G|-----------------------------------------------|
D|-10-10-10-8-10-10-10-8-10-10-10-10-10-10-10-10-|
A|-----------------------------------------------|
E|-----------------------------------------------|

      F
e|-----------------------------------------------|
B|-----------------------------------------------|
G|----8-10-10-10-8-10-8----8-10-10-10b-10-8------|
D|-10-------------------10------------------10-8-|
A|-----------------------------------------------|
E|-----------------------------------------------|

   C
e|-----------------------------------------------|
B|-----------------------------------------------|
G|-----------------------------------------------|
D|-10-10-10-8-10-8----8-10-10-10-10-10-10-10-10--|
A|-----------------10----------------------------|
E|-----------------------------------------------|

   G
e|-----------------------------------------------|
B|-----------------------------------------------|
G|----8-10b-10b-10b-8----10b-10b-10b-10-8--------|
D|-10-----------------10------------------10-8---|
A|-----------------------------------------------|
E|-----------------------------------------------|

        C
e|-----------------------------------------------|
B|-----------------------------------------------|
G|-----------------------------------------------|
D|-10-10-10-10-10-10-10-8-10---------------------|
A|-----------------------------------------------|
E|-----------------------------------------------|

In the background, behind the sax solo play a soft, palm
muted version of the main riff (without the part in the parenthesis).

Repeat Main Riff.

Guitar Solo 2:
e|-----------|
B|-----------|
G|-----------|
D|---------8-|
A|-10--------|
E|-----------|

   C
e|----------------------|    e|----------------------|
B|----------------------|    B|----------------------|
G|---------------8------|    G|---------------8----8-|
D|-10-10-10-8-10---10-8-| x3 D|-10-10-10-8-10---10---|
A|----------------------|    A|----------------------|
E|----------------------|    E|----------------------|

   F
e|----------------------------------------|
B|----------------------------------------|
G|-10-10-10-8-10-8----10-10-11b-10-8------|
D|-----------------10----------------10-8-|
A|----------------------------------------|
E|----------------------------------------|

   C
e|-----------------------------------------|
B|-----------------------------------------|
G|-----------------------------------------|
D|-10-10-10-8-10-8----------10-----10-10-8-|
A|-----------------10-8--------------------|
E|----------------------8-8----8-8---------|

   G                                       C
e|-------------------------------------------|
B|-------------------------------------------|
G|-------------------------------------------|
D|-------------------------------------------|
A|-10-10-10-10-10-10-9-8---------------------|
E|-----------------------11b-11b---11b-11b-8-|

Repeat Main Riff Again.

Ending:
e|-----------------------------8--|
B|-----------------------------8--|
G|-----------------------------8--|
D|-----------------------------10-|
A|-----3---5---6---5---3-------10-|
E|-3-----------------------3---8--|


Tap to rate this tab
# A B C D E F G H I J K L M N O P Q R S T U V W X Y Z