Song name
# A B C D E F G H I J K L M N O P Q R S T U V W X Y Z

Dick Dale - Pipeline tab

Well this is Pipeline by Dick Dale and Stevie Ray Vaughn.
This is the way I play it.

 
 
|--------|-----------------------------------------------------|
|--------|-----------------------------------------------------|
|--------|-----------------------------------------------------|
|--------|---0-2-0-2-4-2-0-2-4-0-4-2-0-2-0---------------------|
|-----2-2|-2-------------------------------2-------------------|
|-0-3----|-----------------------------------------------------|



|--------------------------------------------------------------|
|--------------------------------------------------------------|
|--0-2-0-2-4-2-0-2-4-0-4-2-0-2-0-------------------------------|
|-2------------------------------2-----------------------------|
|--------------------------------------------------------------|
|--------------------------------------------------------------|



|--------------------------------------------------------------|
|--------------------------------------------------------------|
|---4--5--4--5-------------------------------------------------|
|---4--5--4--5-------------------------------------------------|
|---2--3--2--3-------------------------------------------------|
|-0---0--0--0--------------------------------------------------|

Well that's all I know so far but I get the rest soon.

Tabbed by the infamous Takeman.
Tap to rate this tab
# A B C D E F G H I J K L M N O P Q R S T U V W X Y Z